Noutro Caminho
Jay Vaquer
Acordes

Subida por fersuke32
Álbum: Formidável Mundo Cão ( 2007)



Cambiar Cifrado
Americano Latino

Cambiar Tonalidad
-1 +1

Partir Pantalla Imprimir FAQ

Ver solo la LETRA

+A
-A
Mudar para Português
LETRA CON ACORDES
Intro:
(Riff 1)
Dsus4 Dsus4/B A7sus4 Cadd9
E|--------------|--------------|--------------|-----------------|
B|-----------3--|-----------3--|-----------3--|--------------3--|
G|--------0-----|--------0-----|--------0-----|-----------0-----|
D|-----0--------|-----0--------|-----2--------|--------2--------|
A|--5-----------|--2-----------|--0-----------|-0-2-3-----------|
E|--------------|--------------|--------------|-----------------|

Verso:
(segue o Riff 1)
Dsus4
Tão logo me apareceu,
Dsus4/B A7sus4
estudei manual, me guiei
Cadd9 (C7M)
Desejei uma vida, inteira pela frente...
Dsus4
Nem começou
Dsus4/B
Por via das dúvidas,
A7sus4
fórmula, bula, mapa de cor...
Cadd9
desejei ancorar, e navegar
(C7M)
buscando o que se sonhou ...

Ponte:
(segue o Riff 2 já cantando)
G7M A
E|-----------2--|--------------|------------0--|-----------------|
B|--------3-----|-----------3--|---------2-----|--------------2--|
G|-----0--------|--------0-----|------2--------|-----------2-----|
D|--------------|-----0--------|---------------|--------2--------| (2x)
A|--------------|--------------|---0-----------|---0-------------|
E|--3-----------|--3-----------|---------------|-----------------|


(Riff 2)

G7M A
Fui além de mim
G7M
fui capaz de enxergar o invisível
A
mas ainda assim, inventei você ...

Refrão: D D C Bb

D Dsus9
Hoje não sei dizer
Cadd9
quanto de mim restou
Bb
daquele que um dia desejou
D Dsus9
E o tempo transformou,
Cadd9
tanto modificou
Bb Dsus4
que segue outro caminho

(Repete tudo)

(Refrão)

que sigo ...
(sigo o meu caminho)

ACORDES PARA GUITARRA

PIANO UKELELE
Dsus4
Dsus4/B
A7sus4
Cadd9
Cmaj7
Gmaj7
A
D
C
Bb
Dsus9


COMENTARIOS

Aún no hay comentarios,

¡escribe el primero!

Para hacer una pregunta o dejar un comentario sobre esta canción, debes estar LOGUEADO

Las canciones más tocadas de Jay Vaquer

Toca una Canción al Azar de Jay Vaquer
Dsus4
Dsus4/B
A7sus4
Cadd9
Cmaj7
Gmaj7
A
D
C
Bb
Dsus9

Nuestro servidor se demoró 0.27 segundos en generar esta página. Que velocidad!