c ▷ A CUENTAGOTAS: (Jeans) Acordes para Guitarra, Piano & Ukelele

A cuentagotas (Acordes)

Jeans

Full Álbum: Por que disimular (2005)
Subida por rafag

Compartir


Imprimir FAQ
+A
-A

Texto

Desplazamiento

Transportador

Color de Fondo

Archivos

-A
+A
Esta canción esta muy chida y mas por los tabs de la lira, 

esta rola la habia sacado desde hace mucho pero como no la 
habian pedido pues no la habia subido, ok? espero les guste, 
y va dedikada a esa niña ke kise hace 1 año y ke dejo un bonito 
rekuerdo en mi.

El intro:

E----------------------------------------------
B--------7-8-7-5------------------7-8-7-5------
G--7-7-9~--------6-8~---7-8-7-7-9~--------6-8~-
D---7----------------7-9-----7-----------------
A----------------------------------------------
E----------------------------------------------

Y luego kuando al finalizar el primer parrafo, ´..
los celos otra vez kiebren el autocontrol..´(0:32)

G-----6-7-
D--7-9----

En la mitad se repite el intro. (1:24)

Y en cuando dice el ´..peinado por uno mas..´ (1:39)

E-----4-5-
B--5-7----

Ahora si lo mejor!! el solo!!! hechenle!!, haganlo rápido 
para ke se oiga chidoo!!, si no tienen mucha agilidad en 
los dedos de la mano derecha usen una pua, ok?, 
si oyes bien en una parte del solo toka las kuerdasjalandolas 
un poko y en lo último (9*11) haces el hammer y kon el dedo 
meñique jalas acordes web hacia abajo y la sueltas rápido para 
que haga el efecto como en la canción. 

E-----------5---------------------------
B--------6-7---7-8-7-7-5----7-8-7-5~----
G-----6-7----------------7-9------------
D--7-9----------------------------------

E------5--------------------------------
B-----6--7-8-7-7-5----7-8-7-5~----------
G--6-7-------------7-9------------------
D---------------------------------------

E--7-7-6--6-6-5-----------------9*11----
B--8-8-7--7-7-6----7*9-7-5--------------
G---------------7-9-------6/9-----------
D---------------------------------------
/slide
*hammer

Outro, en la salida (outro), se repite el intro.(3:44)


Cualquier duda, comentario o correción escribanme 
a Coal18@hotmail.com, su amigo regio, 
Ismael Hdz. de la Fuente.


Video Clip de A cuentagotas


ACORDES PARA GUITARRA

PIANO UKELELE


TOP 20: Las más tocadas de Jeans


Toca una Canción al Azar de Jeans

Acordes

Cerrar

04.19

x

65