c ▷ LA OLA DEL AVIVAMIENTO: (JEF) Acordes para Guitarra, Piano & Ukelele

La ola del avivamiento (Acordes)

JEF

Subida por Marco

Compartir


Imprimir FAQ
+A
-A

Texto

Desplazamiento

Transportador

Color de Fondo

Archivos

-A
+A
                     Intro
D)|-------------------------------------------------------|
A)|-----------10-10-9-9-7-7-5-5-7-7---------------5-5-----|
E)|7-7-7-7-7-7---------------------5-5-5-5-5-5-5-5-5-5-6--| x4

            Estrofa
Bm                          Bm
El tiempo de Dios ya llegó
G
//Eh - Oh - Eh - Oh - Oh//
Bm                          Bm
Echa fuera todo el temor
G
//Eh - Oh - Eh - Oh - Oh//
Bm                          Bm
Avivamiento en mi nación
G
//Eh - Oh - Eh - Oh - Oh//
Bm                          Bm
Toda rodilla se doble ante el Señor
G
//Eh - Oh - Eh - Oh - Oh//
F#          G
Vamos a montar

           Coro
D)|----------------------|
A)|-------5-7s/9-7-5-5-7-|
E)|7-7-7-7---------------|
   La ola del Avivamiento   G
                Yo estoy montando
            Em
Montando la ola
    F#       G        A
Del Aviiiivaamieeeentoo

D)|----------------------|
A)|-------5-7s/9-7-5-5-7-|
E)|7-7-7-7---------------|
   La ola del Avivamiento   G
                Yo estoy montando
            Em
Montando la ola
 C         B       F#m |F#m Gm Gm F#m
Y nada nos podrá parar ¡ Jamaaaasss !
B
Jaaaaa

D)|-------------------------------------------------------|
A)|-----------10-10-9-9-7-7-5-5-7-7---------------5-5-----|
E)|7-7-7-7-7-7---------------------5-5-5-5-5-5-5-5-5-5-6--| x2

            2ª Estrofa
Bm                          Bm
Con fuerza tienes que remar
G
//Eh - Oh - Eh - Oh - Oh//
Bm                          Bm
Si está enorme ola quieres montar
G
//Eh - Oh - Eh - Oh - Oh//
Bm                          Bm
Una vez que lo intentes no podrás parar
G
//Eh - Oh - Eh - Oh - Oh//
Bm                          Bm
El tiempo ha llegado no puedes renunciar
G
//Eh - Oh - Eh - Oh - Oh//

D)|-------------------------------------------------------|
A)|-----------10-10-9-9-7-7-5-5-7-7---------------5-5-----|
E)|7-7-7-7-7-7---------------------5-5-5-5-5-5-5-5-5-5-6--| x2

Saludos desde la iglesia JesuCristo es mi señor, Jems CORO!


Video Clip de La ola del avivamiento


ACORDES PARA GUITARRA

PIANO UKELELE
Bm
G
F#
Em
A
C
B
F#m
Gm


TOP 20: Las más tocadas de JEF


Toca una Canción al Azar de JEF

Acordes

Cerrar
Bm
G
F#
Em
A
C
B
F#m
Gm

18.31

x

90