c ▷ LA REVOLUCIÓN DE JESÚS: (JEF) Acordes para Guitarra, Piano & Ukelele

La revolución de Jesús (Acordes)

JEF

Subida por Diegogo

Compartir


Imprimir FAQ
+A
-A

Texto

Desplazamiento

Transportador

Color de Fondo

Archivos

-A
+A
Esta es mi versión de la canción, espero les guste.

  Intro: C#m/E/B/A x4

 C#m      E     B      A
Rey de Reyes es Mi Salvador
  C#m       E      B       A
Por Amor a mí su trono Él dejo
 C#m      E      B         A
Todo el universo le rinde Adoración

Acá la guitarra comienza a hacer un rasgueo con las siguientes digitaciones

  C#m      E    B        A
Cordero y León Mi Redentor
  C#m      E    B       A
Alfa y Omega eterno Dios
 C#       E      B         A
Mi vida entera por siempre cambió

e------12-12--12-12-12---11-11-11---9--9--|
B------12-12--12-12-12---12-12-12---10-10-| x4
G------13-13--13-13-13---11-11-11---9--9--|

Luego cuando dice "Ahora libre soy para declarar..."
la guitarra hace otros riff que son los siguientes

 A              B
Ahora libre soy para declarar
   C#m                  E
Ya no vivo yo, vive Cristo en mí
   A                        B
Una Revolución, El Fuego se Encendió
  C#m                        B
No puedo parar (No), Tengo que GRITARLO

G-----6-----6-----9------6--|-----8----8-----11------8-|
D--7-----7-----7-----7------|--9-----9----9-------9----|

G----9------9-----9-----9------14------13-----11------9-|
D-11-----11----11----11-----11------11-----11------11---| x2


Instrumental: A/B/C#m/E x2

Rap: Y si Dios está con nosotros, ¿quién contra nosotros?

No no puedo parar esta Revolución jamás se detendrá
Seguirá y Correra Avanzara mucho más
De Jesús somos la Generación que encenderá
La tierra está sufriendo Avivamiento
Jóvenes y niños predicando en todo tiempo
Seguimos creciendo más se están uniendo
El Evangelio Cambia mayor acontecimiento
Predica no te canses de hacer el bien
Unete y se parte de este equipo tu también
Dispuesto siempre para vencer
Hasta las últimas consecuencias permanecer
// R de Revolución solamente de Jesús
Preparados para anunciar a este mundo la Luz //

Nota: "todo esto lleva lo mismo desde el principio,
osea se repite todo lo anterior de nuevo"

 A                C#m
Ahora libre soy para declarar
 B                     E
Ya no vivo yo, vive Cristo en mí
  A                     C#m
Una Revolución, El Fuego se Encendió
  B                            E
No puedo parar no, Tengo que GRITARLO

Instrumental: A/C#m/B/E x4

          A
Re Revolución de Jesús
        C#m
Revolución de Jesús
          B
Revolución de Jesús Re Revolución

          E
Revolución de Jesús x2

Revolución de Jesús eh!!

Solo: A/B/C#m/E x4
E------------------------------------------|
A------------------------------------------|
D------------------------------------------|
G------------------------------------------|
B--------------14--------------------------|
e--16--14--12------12---14b---14p12h14-----|


E-----------------------------------------|
A-----------------------------------------|
D-----------------------------------------|
G-----------------------------------------|
B------------------17*--------------------|
e---12-12-12-12~--------------------------|

E--------------------------------------------|
A--------------------------------------------|
D--------------------------------------------|
G--------------------------------------------|
B----------------4*--------------------------|
e---7-7-7-7~~--------------------------------|

E---------------------------------------------|
A---------------------------------------------|
D---------------------------------------------|
G---------------------------------------------|
B---------------------------------------------|
e--5h7t9p7p5--5h7t9p7p5--5h7t9p7p5--5h7t9p7p5-|

E----------------------------------------------|
A----------------------------------------------|
D----------------------------------------------|
G----------------------------------------------|
B----------------------------------------------|
e-7h9t11p9p7-7h9t11p9p7-7h9t11p9p7-7h9t11p9p7--|

E--------------------------------|
A--------------------------------|
D--------------------------------|
G--------------------------------|
B--------------------------------|
e---9h11t12p11p9--9h11t12p11p9---|

E-----------------------------------|
A-----------------------------------|
D-----------------------------------|
G-----------------------------------|
B-----------------------------------|
e---12h14t16p14p12--12h14t16p14p12--|

E-----------------------------|
A-----------------------------|
D-----------------------------|
G-----------------------------|
B-------------------17*-------|
e---t14--t16--t18-------------| Final del solo *Armonico

Revolución de jesus re revolución: C#m/E/B/A x4

En la parte del Dubsteb o la electrónica los acordes son:

[C#m/B/A/F#-F#/G#m/A/G#m/F#/E/C#m] Así, bien marcados, escuchén
 y vean donde y en que tiempo estan cada uno...


Silencio:
Vamos que pasa no pare la canción
Seguimos todos pa´ arriba con esta Revolución yeah

Instrumental: A/B/C#m/E x2

Re revolcuión de jesus: A/B/C#m/E x2

Final: C#m-E-A-G#m-F#.... C#m

En el dubsteb y en el final es recomendable usar power chord,
suena mejor y es mas sencillo...

Espero que les haya servido, muchas gracias por mirar,
esta es la primera canción que subo


Video Clip de La revolución de Jesús


ACORDES PARA GUITARRA

PIANO UKELELE
C#m/E
C#m
E
B
A
C#
A/B
G#m
F#


TOP 20: Las más tocadas de JEF


Toca una Canción al Azar de JEF

Acordes

Cerrar
C#m/E
C#m
E
B
A
C#
A/B
G#m
F#

11.15

x

82