A Página Virou
Joelma
Acordes

Subida por musico
Álbum: Joelma ( 2016)



Otras Versiones
Ver. 2

ENTRENA TU OÍDO MUSICAL CON ESTE JUEGO. ¿QUÉ ACORDE ES?. CLIC AQUÍ PARA JUGAR

Cambiar Cifrado
Americano Latino

Cambiar Tonalidad
-1 +1

Partir Pantalla Imprimir FAQ

Ver solo la LETRA

+A
-A
Mudar para Português
LETRA CON ACORDES

E|-------------------------------------------------------------------------|
B|---6-------------------6-------------------6-----------------------------|
G|-----6-8--8-8-6----------6-8--8-8-6----------6-8--8-8-6------------------|
D|-8--------------8----8--------------8----8--------------8--8-8-8-8-8-----|
A|-------------------------------------------------------------------------|
E|-------------------------------------------------------------------------|

E|-----------------------------------------------------------------------------------------------------|
B|-----------------------------------------------------------------------------------------------------|
G|-----------------------------------------------------------------------------------------------------|
D|--11-11-11-11-11h13-11/9---9-9-9-9-9-9h11-9----------------------------------------------------------|
A|--------------------------------------------11--11-11-11-11-11h13-11/10-10-11-10-11-10-11-10---------|
E|-----------------------------------------------------------------------------------------------------|


Bbm G#
Bola pra frente que a página virou

Virou, virou
Bbm
Se você para, seu mundo para de girar
G#
Girar, girar
Bbm G#
Vê se me conta outra história que essa passou

Passou, passou
Bbm
E o sentido da vida é continuar
Bb4 Bbm
Pra frente, é que se anda
Bb4 Bbm
Pra frente, se deve andar
Bb4 Bbm
Pra frente, sempre pra frente
G# Bbm
Que a vida da gente não pode parar

Bb4 Bbm
Pra frente, é que se anda
Bb4 Bbm
Pra frente, se deve andar
Bb4 Bbm
Pra frente, sempre pra frente
G# Bbm
Que a vida da gente não pode parar

Bbm G#
Vira, vira a página virou
Bbm
Deixa no museu o tempo que passou, passou
G#
Passou, passou
Bbm G#
Vira, vira a página virou

Vem cá balançar com meu som
Bbm
Que a festa começou

Bb4 Bbm
Pra frente, é que se anda
Bb4 Bbm
Pra frente, se deve andar
Bb4 Bbm
Pra frente, sempre pra frente
G# Bbm
Que a vida da gente não pode parar
Bb4 Bbm
Pra frente, é que se anda
Bb4 Bbm
Pra frente, se deve anda
Bb4 Bbm
Pra frente, sempre pra frente
G# Bbm
Que a vida da gente não pode parar

ACORDES PARA GUITARRA

PIANO UKELELE
Bbm
G#
Bb4


COMENTARIOS

Aún no hay comentarios,

¡escribe el primero!

Para hacer una pregunta o dejar un comentario sobre esta canción, debes estar LOGUEADO

Las canciones más tocadas de Joelma

Toca una Canción al Azar de Joelma
Bbm
G#
Bb4

Nuestro servidor se demoró 0.11 segundos en generar esta página. Eso fue realmente muy rápido!