Se Vira Aí
Joelma
Acordes

Subida por Lecteer
Álbum: Joelma ( 2016)



Otras Versiones
Ver. 2

Cambiar Cifrado
Americano Latino

Cambiar Tonalidad
-1 +1

Partir Pantalla Imprimir FAQ

+A
-A
Mudar para Português
LETRA CON ACORDES
[Solo]

E|---------------------------------------------------|
B|---------------------------------------------------|
G|------------------------5/7------------------------|
D|----8--------------8-8------8----10--10-7----------|
A|-10----------10-10------------8------------8-8-----|
E|-------10-11---------------------------------------|

E|---------------------------------------------------|
B|---------------------------------------------------|
G|--------------------------5/7----------------------|
D|------8---------------8-8------8----10-10-7--------|
A|-8/10----------10-10------------8------------------|
E|--------10-11--------------------------------------|

Gm Eb Bb F
Não tenho tempo pra chorar o final de uma paixão
Gm Eb
Não demora, eu sei, vai passar
Bb F
Essa dor do meu coração

Gm Eb
Eu não sou mulher de brincar
Bb F
Eu odeio a traição
Gm Eb
Dividir amor não vai dar
Bb F
O que fez não vai ter perdão

Gm Eb Bb
A saudade vai bater na porta do seu coração
F
Se vira aí
Gm Eb Bb
Na hora de dormir vai sentir frio e solidão
F
Se vira aí

Gm Eb Bb
O tempo vai mostrar que não passou de uma ilusão
F
Se vira aí
Gm Eb Bb
E vai ficar sem rumo, sem encontrar a direção
F
Se vira aí

Gm Eb
Vai chorar de amor
Bb F
O seu coração vai gritar
Gm Eb
Vai chorar de dor
Bb F
E a saudade não vai passar

Gm Eb
Vai chorar de amor
Bb F
Vai pirar tentando me achar
Gm Eb
Vai querer amor
Bb F
Como o meu não vai encontrar

ACORDES PARA GUITARRA

PIANO UKELELE
Gm
Eb
Bb
F


COMENTARIOS

Aún no hay comentarios,

¡escribe el primero!

Para hacer una pregunta o dejar un comentario sobre esta canción, debes estar LOGUEADO

Las canciones más tocadas de Joelma

Toca una Canción al Azar de Joelma
Gm
Eb
Bb
F

Nuestro servidor se demoró 0.05 segundos en generar esta página. Eso fue realmente muy rápido!