De Volta Ao Planeta
Jota Quest
Acordes

Subida por Nayade2020
Álbum: De volta ao planeta ( 1998)



Otras Versiones

ENTRENA TU OÍDO MUSICAL CON ESTE JUEGO. ¿QUÉ ACORDE ES?. CLIC AQUÍ PARA JUGAR

Cambiar Cifrado
Americano Latino

Cambiar Tonalidad
-1 +1

Partir Pantalla Imprimir FAQ

Ver solo la LETRA

+A
-A
Mudar para Português
LETRA CON ACORDES
[Intro]

E|-------------------------------------------|
B|-------------------------------------------|
G|--------------------------5h6--------------|
D|------------------------------7-5-7-5-5-h7-|
A|--5h7-7-5-5--5-5h7--5h7--------------------|
E|-------------------------------------------|

Lá fora
Todos os corações procuram a sua órbita
Novas propostas pro mundo
Novos encaixes pras coisas
Que ainda não estão no lugar
Atento às diversidades
Em busca da janela espacial
É preciso provar das loucuras
Ativar novas possibilidades
De volta ao planeta dos macacos

E D A E D A
Nanana banana, nanananana banana
E D A E D A
Nanana banana, nanananana banana

Em7 A Em7 A
É a macacada reunida , rapazeada sambando, xingando ,rodando na pista
Em7 A Em7 A
Macacada reunida, galera pelejando e dançando, procurando uma saída

A7+ B
É ... cê não tá sabendo não ??
A7+ B
Agora é lei cada macaco no seu galho !!

E D A E D A
Nanana banana, nanananana banana
E D A E D A
Nanana banana, nanananana banana
Tá faltando emprego no planeta dos macacos

E|-------------------------------------------|
B|-------------------------------------------|
G|--------------------------5h6--------------|
D|------------------------------7-5-7-5-5-h7-|
A|--5h7-7-5-5--5-5h7--5h7--------------------|
E|-------------------------------------------|

ACORDES PARA GUITARRA

PIANO UKELELE
E
D
A
Em7
Amaj7
B


COMENTARIOS

Aún no hay comentarios,

¡escribe el primero!

Para hacer una pregunta o dejar un comentario sobre esta canción, debes estar LOGUEADO

Las canciones más tocadas de Jota Quest

Toca una Canción al Azar de Jota Quest
E
D
A
Em7
Amaj7
B

Nuestro servidor se demoró 0.06 segundos en generar esta página. Eso fue realmente muy rápido!