Encontrar Alguém

Jota Quest

Acordes

Subida por Issa

Álbum: J. Quest (1996)

Compartir



Otras Versiones

Imprimir FAQ

Ver solo la LETRA
+A
-A

Aquí puedes agrandar o achicar la letra, iniciar un scroll automático o cambiar de tonalidad como mas prefieras.

Achicar

Zoom

Agrandar

Mudar para Português

TONALIDAD, TAMAÑO, CIFRADO, SCROL.

Nos renovamos: Ahora puedes cambiar TODO haciendo clic en ICONO de la Guitarra () que aparece en la parte inferior de esta página.


LETRA CON ACORDES
Intro:

E|---------------------------------------------------|
B|---------------------------------------------------|
G|-4-4-5-6-------------------------------------------|
D|---------------------------------------------------|
A|-2-2-3-4-------------------------------------------|
E|---------------------------------------------------|

(D7M  C#m7  F#m7) 3x

F7M  E7(4/9)

Refrão:

D7M    C#m7   F#m7
Encontrar alguém
D7M    C#m7   F#m7
Encontrar alguém
D7M    C#m7   F#m7
Encontrar alguém
            F7M  E7(4/9)
Que me dê amor

Primeira parte:

F#m7                                      Bm7
     Da esquina eu vi o brilho dos teu olhos

Tua vontade de morrer de rir
F#m7
     Teus cabelos tentaram esconder
     Bm7           F#m7
Mas vi tua boca feliz

Tua alma leve como as fadas
Bm7
    Que bailavam no teu peito
F#m7
     Tua pele clara como a paz
      Bm7                 F#m7
Que existe em todo sonho bom
        B7
Quis matar os seus desejos
F#m7        B7
     Ver a cor dos teus segredos
F#m7       B7
     E contar pra todo mundo
   F#m7            E7(4/9)
O beijo que eu nunca esqueci

Refrão:

D7M    C#m7   F#m7
Encontrar alguém
D7M    C#m7   F#m7
Encontrar alguém
D7M    C#m7   F#m7
Encontrar alguém
            F7M  E7(4/9)
Que me dê amor

Primeira parte:

F#m7                                      Bm7
     Da esquina eu vi o brilho dos teu olhos

Tua vontade de morrer de rir
F#m7
     Teus cabelos tentaram esconder
     Bm7           F#m7
Mas vi tua boca feliz

Tua alma leve como as fadas
Bm7
    Que bailavam no teu peito
F#m7
     Tua pele clara como a paz
      Bm7                 F#m7
Que existe em todo sonho bom
        B7
Quis matar os seus desejos
F#m7        B7
     Ver a cor dos teus segredos
F#m7       B7
     E contar pra todo mundo
   F#m7            E7(4/9)
O beijo que eu nunca esqueci

Refrão 2x:

D7M    C#m7   F#m7
Encontrar alguém
D7M    C#m7   F#m7
Encontrar alguém
D7M    C#m7   F#m7
Encontrar alguém
            F7M  E7(4/9)
Que me dê amor

Base solo:

(D7M  C#m7  F#m7) 3x

F7M  E7(4/9)

Solo:

1ª parte:

E|---------------------------------------------------|
B|---------------------------------------------------|
G|-9h11-9----9-9-------------------------------------|
D|--------11-----9h11-9------------------------------|
A|----------------------12-9-12-12-9-----------------|
E|---------------------------------------------------|

2ª parte:

E|---------------------------------------------------|
B|-----------10-10---------10----12b14-14r12-10------|
G|-9h11-9----------11-9h11----11---------------------|
D|--------11-----------------------------------------|
A|---------------------------------------------------|
E|---------------------------------------------------|

3ª parte:

E|---------------------------------------------------|
B|---------------------------------------------------|
G|-9h11-9----9-9-------------------------------------|
D|--------11-----9h11-9------------------------------|
A|----------------------12-9-12-12-9-----------------|
E|---------------------------------------------------|

Refrão (repete até o final):

D7M    C#m7   F#m7
Encontrar alguém
D7M    C#m7   F#m7
Encontrar alguém
D7M    C#m7   F#m7
Encontrar alguém
            F7M  E7(4/9)
Que me dê amor

ACORDES PARA GUITARRA

PIANO UKELELE
Dmaj7
C#m7
F#m7
Fmaj7
E11
Bm7
B7



COMENTARIOS

Aún no hay comentarios,

¡escribe el primero!

Escribe un comentario o pregunta sobre esta canción


TOP 20: Las más tocadas de Jota Quest

Toca una Canción al Azar de Jota Quest

Acordes

Cerrar
Dmaj7
C#m7
F#m7
Fmaj7
E11
Bm7
B7

00.12


Nuestro servidor se demoró 0.21 segundos en generar esta página. Eso fue realmente muy rápido!