Tele-Fome
Jota Quest
Acordes

Subida por toninaus
Álbum: Oxigênio ( 2000)



Cambiar Cifrado
Americano Latino

Cambiar Tonalidad
-1 +1

Partir Pantalla Imprimir FAQ

Ver solo la LETRA

+A
-A
Mudar para Português
LETRA CON ACORDES
(Letra : Paulinho Pedra Azul  -  Música : Rogerio Flausino)


Intr : C Bm Am7 Bm C Bm Am7 D

G C D
Não alimento amor por telefone
G C D
Isso é ilusão
G C D
Não adianta falar de amor ao telefone
G C D
Isso é ilusão

Am7 Em
Pra que tanto telefonema
Am7 Em
Se o homem inventou o avião
Am7 Em
Pra você chegar mais rápido
C D
Ao meu coração

G C D
Não alimento amor por telefone
G C D
Isso é ilusão
G C D
Não adianta falar de amor ao telefone
G C D
Isso é ilusão

Am7 Em
A fome de amar é real
Am7 Em
Não se traduz em fios
Am7 Em
Meu ouvido não ama
C D
Apenas ouve os seus reclames
_
G D/F# l
Vou desligar l
C l
Não me ligue mais l
D l 2x
A obrigação da tua voz l
G l
É estar aqui _l

(C Bm Am7 Bm)
No ouvido do meu coração
(C Bm Am7 D)
No ouvido do meu coração

acompanhamento do solo
( G D/F# C D G D/F# C D )

SOLO
E|--------------------------------------------------|
B|--------------------------------------------------|
G|--4s5-4-----4s5-4-----4s5-4-----7s9-7-------------|
D|--------5---------5---------5---------7s9-7-5-----|
A|----------------------------------------------7---|
E|--------------------------------------------------|

E|----------------------------------10-----10-----10-----10-----10b12-10-|
B|------------------------------8-8----8-8----8-8----8-8----8-8----------|
G|-4s5-4-----4s5-4----4s5-4----------------------------------------------|
D|-------5---------5--------5--------------------------------------------|
A|-----------------------------------------------------------------------|
E|-----------------------------------------------------------------------|

Repete Tudo

ACORDES PARA GUITARRA

PIANO UKELELE
C
Bm
Am7
D
G
Em
D/F#


COMENTARIOS

Aún no hay comentarios,

¡escribe el primero!

Para hacer una pregunta o dejar un comentario sobre esta canción, debes estar LOGUEADO

Las canciones más tocadas de Jota Quest

Toca una Canción al Azar de Jota Quest
C
Bm
Am7
D
G
Em
D/F#

Nuestro servidor se demoró 0.09 segundos en generar esta página. Eso fue realmente muy rápido!