Tempos Modernos (Acordes)

Jota Quest

Subida por rockyariel1

Compartir


Cambiar Cifrado
Americano Latino

Cambiar Tonalidad
-1 +1
Imprimir FAQ
+A
-A

Texto

Desplazamiento

Transportador

Color de Fondo

Archivos

Mudar para Português

TONALIDAD, TAMAÑO, CIFRADO, SCROL.

Nos renovamos: Ahora puedes cambiar TODO haciendo clic en ICONO de la Guitarra () que aparece en la parte inferior de esta página.


LETRA CON ACORDES

Intro:
E|-------------------------------------------------------------------|
B|-------------------------------------------------------------------|
G|---9-9-9------4-4-4-----5-5-5------7-7-7---------------------------|      2x
D|---9-9-9------4-4-4-----5-5-5------7-7-7---------------------------|
A|---7-7-7------2-2-2-----3-3-3------5-5-5---------------------------|
E|-------------------------------------------------------------------|

Verso (solinho) :
E|-------------------------------------------------------------------|
B|----------8--10b-8-------------------------------------------------|
G|-------9----------------9-7-9v-------------------------------------|      2x
D|-------------------------------------------------------------------|
A|-------------------------------------------------------------------|
E|-------------------------------------------------------------------|
                                                    p.m
E|----------------------------------------------10-10-10-------------|
B|----------8--10b-8----------8--10b-8----------10-10-10-------------|
G|-------9-----------------9--------------------11-11-11----4x-------|
D|----------------------------------------------12-12-12-------------|
A|----------------------------------------------12-12-12-------------|
E|----------------------------------------------10-10-10-------------|

Refrão:
Hoje o tempo voa...
       p.m           p.m                p.m
E|--8--8--8----------7-7-7----------10-10-10-------------------------|
B|--8--8--8----------8-8-8----------10-10-10-------------------------|
G|--9--9--9---4x-----9-9-9---4x-----11-11-11---4x--------------------|        
D|- 10-10-10---------9-9-9----------12-12-12-------------------------|        
A|--10-10-10---------7-7-7----------12-12-12-------------------------|
E|--8--8--8----------7-7-7----------10-10-10-------------------------|

E|--8--8--8----------7-7-7-------------------------------------------|
B|--8--8--8----------8-8-8-------------------------------------------|
G|--9--9--9---4x-----9-9-9---4x--------------------------------------|
D|- 10-10-10---------9-9-9-------------------------------------------|
A|--10-10-10---------7-7-7-------------------------------------------|
E|--8--8--8----------7-7-7-------------------------------------------|


Video Clip de Tempos Modernos


ACORDES PARA GUITARRA

PIANO UKELELE


TOP 20: Las más tocadas de Jota Quest


Toca una Canción al Azar de Jota Quest

Acordes

Cerrar

09.20

x

182