Bailando como mono
La Floripondio
Acordes

Subida por rodafada


Más Versiones
Ver. 2 Ver. 3

Cambiar Cifrado
Americano Latino

Cambiar Tonalidad
-1 +1

Partir Pantalla Imprimir FAQ

+A
-A


Ver solo la LETRA
SOL RE RE SOL SOL RE RE SOL

SOL RE
Bailando como mono espero encontrarme
RE SOL
bailando en fiestas perdidas (x2)


SOL RE
Yo lo soñe yo lo soñe
RE SOL
me vi bailando con la cara enferma
SOL RE
y sin saber que hacer como testarudo
SOL
me fui cayendo a la primera

SOL
Y me cae y me cae la desesperanza,
RE
se me cae toda el alma tambien
RE SOL
vamos a tener que comenzar todo de nuevo

SOL
afuera el miedo arriba las ganas
RE SOL
hay que ponerse duro para ponerse entero


Bailando como mono espero encontrarme
bailando en fiestas perdidas
(x2)

(Con las mismas notas durante toda la cancion)

SOLO GUITARRA

e|-10-10-10-10-10-8---7-7-7-7-7-8---2-2-2-2-2-3-2-|
B|-12-12-12-12-12-10--8-8-8-8-8-10--3-3-3-3-3-5-3-|
G|------------------------------------------------|


e|-2-2-2-2-2-3--2-2-2-2-2-3--7-7-7-7-7-8---7-7-7-7-7-8--|
B|-3-3-3-3-3-5--3-3-3-3-3-5--8-8-8-8-8-10--8-8-8-8-8-10-|
G|------------------------------------------------------|


e|-10-10-10-10-10-8---7-7-7-7-7-8---2-2-2-2-2-3-2--|
B|-12-12-12-12-12-10--8-8-8-8-8-10--3-3-3-3-3-5-3--|
G|-------------------------------------------------|


e|-2-2-2-2-2-3--2-2-2-2-2-3--7-7-7-7-7-8---7-7-7-7-7--|
B|-3-3-3-3-3-5--3-3-3-3-3-5--8-8-8-8-8-10--8-8-8-8-8--|
G|----------------------------------------------------|


Ariba la fiesta mama, arriba la fiesta mama
hay que ponerse duro para ponerse entero
y si bien bien bien yo no te trate bien
voy a hacerte el fuego


Bailando como mono espero encontrarme
bailando en fiestas perdidas
(x2)


Dancing like monkey monkey to find myself
dancing in this forgotten party
(x2)


Bajando desde olmué
viene un batallon de gente bacilando
y celebrando, y sonriendo,
y bacilando bacilando


Bailando como mono espero encontrarme
bailando en fiestas perdidas
(x2)

PARA TODOS LOS MONOS


ACORDES PARA GUITARRA

PIANO UKELELE
G
D


COMENTARIOS

Aún no hay comentarios,

¡escribe el primero!

Escribe una pregunta, duda o comentario sobre esta canción, te responderemos a la brevedad.

Las más tocadas de La Floripondio

Toca una Canción al Azar de La Floripondio
G
D