El Final

La Gran 7

Acordes

Subida por Galeo


Más Versiones
Ver. 2 Ver. 3 Ver. 4

Cambiar Cifrado
Americano Latino

Cambiar Tonalidad
-1 +1

Partir Pantalla Imprimir FAQ

+A
-A


Ver solo la LETRA
intro: SIm - REm - DOm - RE#m - REm

riff(2 veces)

SIm REm DOm
1 ----------------------------------------------------------------
2 ---------------------------------------------------------5-4----
3 --7-7-7-9-7-9-7-9---5-5-5-7-5-7-5-7-5---3-3-3-5-3-5-3-5-3-5-3-0-


1 ----------------------------------------------------------------
2 -4-4-4-4---2-3-0-------------------------------------------------------
3 ---------3-------------------------------------------------------


Y otra vez me decis que te llegó el final,
o la luz que nos roba la intimidad,
con la excusa de un motor, que es el movil de tu amor.
Todo por que una vez me descuidé.

Nose como ni porqué terminé enrredado en tu pelo otra vez.
Nose como ni porqué bebí tus lágrimas tintas sin soda.

SIm REm DOm
1 ----------------------------------------------------------------
2 ---------------------------------------------------------5-4----
3 --7-7-7-9-7-9-7-9---5-5-5-7-5-7-5-7-5---3-3-3-5-3-5-3-5-3-5-3-0-


1 --------------------
2 -4-4-4-4---2-3-0----
3 ---------3----------


Descanzo en el valle de tus omoplatos.
Que no es el valle lunar.
Los debería desterrar, a uno y a cada cual.

Nose como ni porqué terminé enrredado en tu pelo otra vez.
Nose como ni porqué volví a dormirme en tu vientre.

SIm REm DOm
1 ----------------------------------------------------------------
2 ---------------------------------------------------------5-4----
3 --7-7-7-9-7-9-7-9---5-5-5-7-5-7-5-7-5---3-3-3-5-3-5-3-5-3-5-3-0-


1 -------------------
2 -4-4-4-4---2-3-0---
3 ---------3---------



Y otra vez me decis que te llegó el final,
o la luz que nos roba la intimidad,
con la excusa de un motor, que es el movil de tu amor.
Todo por que una vez me descuidé.

Nose como ni porqué tu abrazo me hace volver.
Nose como ni porqué desperté.

SIm REm DOm
1 ----------------------------------------------------------------
2 ---------------------------------------------------------5-4----
3 --7-7-7-9-7-9-7-9---5-5-5-7-5-7-5-7-5---3-3-3-5-3-5-3-5-3-5-3-0-


1 ------------------
2 -4-4-4-4---2-3-0--
3 ---------3--------



yo mismo corrijo los errores!!!
para la proxima los acordes!!!
[email protected]


NUEVO FORO DE MÚSICA

¿Tienes alguna duda, consulta, pregunta, consejo o algo para compartir sobre esta canción?

¡Puedes abrir un hilo en el FORO para que la comunidad te ayude! Hacer una pregunta

ACORDES PARA GUITARRA

PIANO UKELELE
Bm
Dm
Cm
D#m


Las más tocadas de La Gran 7

Bm
Dm
Cm
D#m