Tuviste Abril

La Gran 7

Acordes

Subida por tonyfrayre


Más Versiones
Ver. 2 Ver. 3

Cambiar Cifrado
Americano Latino

Cambiar Tonalidad
-1 +1

Partir Pantalla Imprimir FAQ

+A
-A


Ver solo la LETRA
INTRO: MI5-FA#5-DO#5-SI5

MI5 FA#5
Vos no estuviste justamente ahí
DO#5 SI5
Ni por casualidad pudiste estar
MI5 FA#5
Y a mi nadie me lo vino a contar
DO#5 SI5 - MI5
Yo puedo decir justamente que lo vi

(Riff) x2

IGUAL A LA PRIMERA ESTROFA:

No arrugue amigo que
no hay quien planche
Manito barrera no pide ayuda
Descalzo de agua viene a remar
Descalzo de río viene a ayudar

(Riff)x2

Y Ahora la cosa esta realmente mal
Y tu chamuyo ya no puedo oír
Seguir mintiendo no te va ayudar
Prepara las pilchas te tenes q ir

(Riff) x2

Y tanto cuesta darte cuenta que
El río siempre te va a perseguir
Ya no hay escape en este
mundo para vos
SI5 - SIb5
Ni en tu paraíso tendrás perdón

ESTRIBILLO:
LA MI
Que te pasa ojitos claros
LA MI
Jugandola de alemán
LA MI
Compañeros son los huevos
SI5 SIb5 - LA
Los muchachos ya no están
LA MI
Divididos las pelotas,
LA MI
Ni juntos ni dominados
LA MI
Compañeros son los huevos
SI
Otro trago pa’ el pelado

(Riff) x2

IGUAL A LA PRIMERA ESTROFA:

El aleteo ya puedo escuchar
El sol nocturno viene a controlar
Islas de chapa, loza, lona, zinc.
Que fin tan frío tuviste abril

(Riff) x2

Me encanto la emergencia de tu plan
En una escuela tuve que dormir
Escondiendo muertos queres tapar
Donde tu conciencia no quiere oír

Punteo:

E|--------------------------------------------------|
B|----10v----9v-----7v------------------------------|
G|--------------------------------------------------|
D|--------------------------------------------------|
A|--------------------------------------------------|
E|--------------------------------------------------|
(X3)

E|---------------------------------------------------|
B|----121212121212-12-11-10--------------------------|
G|---------------------------------------------------|
D|---------------------------------------------------|
A|---------------------------------------------------|
E|---------------------------------------------------|

Riff:

E|----------------------------------------------------|
B|----------------------------------------------------|
G|---1---------2--------------------------------------|
D|-2---2-2---4---4-4---2-1----1-2-1------2v-----------|
A|-------------------4-----2---------2----------------|
E|----------------------------------------------------|
====================================================
Referencias:
V: vibrato

Aca les dejo esta transcripcion de esta banda de santa fe:D..
espero q les guste...cualquier cosa les dejo mi mail
[email protected]


NUEVO FORO DE MÚSICA

¿Tienes alguna duda, consulta, pregunta, consejo o algo para compartir sobre esta canción?

¡Puedes abrir un hilo en el FORO para que la comunidad te ayude! Hacer una pregunta

ACORDES PARA GUITARRA

PIANO UKELELE
E5
F#5
C#5
B5
Bb5
A
E
B


Las más tocadas de La Gran 7

E5
F#5
C#5
B5
Bb5
A
E
B