Mareado
La Gran 7
Acordes

Subida por Diegomarini


Más Versiones
Ver. 2 Ver. 3

HERRAMIENTAS

Cambiar Cifrado
Americano Latino

Cambiar Tonalidad
-1 +1

Partir Pantalla Imprimir FAQ

+A
-A

LETRA CON ACORDES

¿Tu Guitarra esta Afinada? PRUEBA NUESTRO NUEVO AFINADOR

repite 2 veces el punteo

e|--------------------------------------
B|--------------------------------------
G|-9-9p8---------8---9-9p8-9-9/11-9p8-----
D|------11-9-9-11--------------------9----
A|--------------------------------------
E|--------------------------------------


e|-------------------------------------------
B|-------------------------------------12-----
G|-9-9p8---------8-9p8-9-9/11-9-11-11^---11^-9
D|------11-9-9-11-----------------------------
A|-------------------------------------------
E|-------------------------------------------





C#m F#m
LA VIDA DA VUELTAS DICEN POR AHI
C#m F#m
PERO ME GUSTA ESTAR MAREADO
C#m F#m
NO QUIERO VOLVER
. A
A CREER...

C#m F#m
PARA, PAREMOS UN POCO
C#m F#m
SUSPENDE, GRITA MI CABEZA
C#m F#m
CUANTO TIEMPO MAS
. A
VOY A TENER QUE ESTAR?


ESTRIBILLO

E B
HASTA DONDE ME QUIEREN LLEVAR?
A E
AL OLVIDO NO LO VAN A LOGRAR
E B A
HAY UN MUNDO ALLA AFUERA Q NOS ESPERA
A E
UN MUNDO AL Q LE VAMOS A DAR Y DAR


punteo

C#m F#m
YO NO QUIERO HISTORIAS DE VERDAD
C#m F#m
NI MEMORIA GENOCIDA
. C#m
CONOCIDA TU VOZ
F#m A
QUIERE ESCUCHAR MI VOZ...

C#m F#m
CUANTO TIEMPO MAS VOY A TENR Q ESTAR?
C#m F#m
MI CABEZA YA NO PIENSA
. C#m F#m
Y ESE DULCE SILENCIO
. A
ME DESPIERTA


E B
HASTA DONDE ME QUIEREN LLEVAR?
A E
AL OLVIDO NO LO VAN A LOGRAR
E B A
HAY UN MUNDO ALLA AFUERA Q NOS ESPERA
A E
UN MUNDO AL Q LE VAMOS A DAR Y DAR

F#m F#m A C#m
F#m F#m A

Solo de guitarra



E B
HASTA DONDE ME QUIEREN LLEVAR?
A E
AL OLVIDO NO LO VAN A LOGRAR
E B A
HAY UN MUNDO ALLA AFUERA Q NOS ESPERA
A E
UN MUNDO AL Q LE VAMOS A DAR Y DAR
E B
HASTA DONDE ME QUIEREN LLEVAR?
A E
AL OLVIDO NO LO VAN A LOGRAR
E B A
HAY UN MUNDO ALLA AFUERA Q NOS ESPERA
A E
UN MUNDO AL Q LE VAMOS A DAR Y DAR


Termina con el punteo

////////////////// ¿Te Animas? Sube una canción a este sitio. //////////////////

ACORDES PARA GUITARRA

PIANO UKELELE
C#m
F#m
A
E
B


COMENTARIOS

Aún no hay comentarios,

¡escribe el primero!

Escribe una pregunta, duda o comentario sobre esta canción, te responderemos a la brevedad.

Las canciones más tocadas de La Gran 7

Toca una Canción al Azar de La Gran 7
C#m
F#m
A
E
B

16.00


Nuestro servidor se demoró 0.02 segundos en generar esta página. Eso fue realmente muy rápido!