Calienta el odio
La Polla Records
Acordes

Subida por Victoria


Más Versiones
Ver. 2 Ver. 3

Cambiar Cifrado
Americano Latino

Cambiar Tonalidad
-1 +1

Partir Pantalla Imprimir FAQ

+A
-A


Ver solo la LETRA
NOTA: Todos los acordes son quintas.

Simbolos: > = Hammer on

INTRO: A#

e|-------------------------------------------------------|
B|-------8-6-6-6>8-6-6>8-6------------------------8-6-6--|
G|-----7-------------------7--------------------7--------|
D|-8-8-----------------------8-8-8------8-8-8-8----------|
A|---------------------------------8>10------------------|
E|-------------------------------------------------------|

e|----10-------10-------10-10-10-10-10-10----------------|
B|-11----11-11----11-11-11-11-11-11-11-11----------------|
G|-------------------------------------------------------|
D|-------------------------------------------------------|
A|-------------------------------------------------------|
E|-------------------------------------------------------|


A#
Mundo de buitres ciegos, mundo cartera.
D# F A#
Mundo cobarde, mundo antinatural.
D# F A#
Si todo va a acabar, gratis lo van a ver.
D# F A#
Si todo sigue igual, también seguiré.

D# F A#, D# F A#, D# F A#, D# F A#

A#
Con las antenas puestas la vida entera,
D# F A#
hay mucho malnacido que controlar.
D# A#
Esto no puede ser, que paranoia...

D# D A#
Odio a mi alrededor.
D# D A#
Odio a mi alrededor.
D# D A#
Odio dentro de mi.

D# D A#
Odio a mi alrededor.
D# D A#
Odio a mi alrededor.
D# D A#
Odio dentro de mi.



SOLO:

e|---------------------------------------------------------|
B|---------8-6-6-6>8-6-6>8-6------------------------8-6-6--|
G|-------7-------------------7--------------------7--------|
D|-8-8-8-----------------------8-8-8------8-8-8-8----------|
A|-----------------------------------8>10------------------|
E|---------------------------------------------------------|

e|----10-------10-------10-10-10-10-10-10------------------|
B|-11----11-11----11-11-11-11-11-11-11-11------------------|
G|---------------------------------------------------------|
D|---------------------------------------------------------|
A|---------------------------------------------------------|
E|---------------------------------------------------------|


A#
Quiero sacar de mi esta locura ardiente,
D# F A#
quiero apagar el fuego de mi razón,
D#
pero no puede ser, vista la situación de...

D# D A#
Odio a mi alrededor.
D# D A#
Odio a mi alrededor.
D# D A#
Odio dentro de mi.

D# D A#
Odio a mi alrededor.
D# D A#
Odio a mi alrededor.
D# D A#
Odio dentro de mi. Calor Calor Calor Calor Calor Calor...
D# D A#
Calienta el odio, dentro de mí.
D# D A#
Calienta el odio, dentro de mí.


e|------------------------|
B|----------------8-6-6---|
G|--------------7---------|
D|------8-8-8-8-----------|
A|-8>10-------------------|
E|------------------------|

A# D# D A#
Calienta el odio, dentro de mí.
D#
Calienta el odio.



Eso es todo... ezpero lez sea mas util
Komentarios, sugerenzias o petizionez al korreo
[email protected]


ACORDES PARA GUITARRA

PIANO UKELELE
A#
D#
F
D


COMENTARIOS

Aún no hay comentarios,

¡escribe el primero!

Escribe una pregunta, duda o comentario sobre esta canción, te responderemos a la brevedad.

Las más tocadas de La Polla Records

Toca una Canción al Azar de La Polla Records
A#
D#
F
D