La Chica Ye-Ye
La Polla Records
Acordes

Subida por Angeles


Más Versiones
Ver. 2 Ver. 3 Ver. 4 Ver. 5 Ver. 6

Cambiar Cifrado
Americano Latino

Cambiar Tonalidad
-1 +1

Partir Pantalla Imprimir FAQ

+A
-A


Ver solo la LETRA
Intro: Este tema lo saqué de una versión en vivo.

Se los digo ya que e escuchado varias versiones
distintas de este tema. (Del Solo)

Riff 1: (Este riff va apañado. Las X quieren decir que
deben apañar además con la mano derecha, para eso
solo deben soltar un poco la nota, sin sacar la
mano de su posición).

1 |------------------------------------------------------------|
2 |------------------------------------------------------------|
3 |------------------------------------------2--x--x-----------|
4 |---5--x--x-----------5--x--x--5--5--4--4--2--x--x--2--x--x--|
5 |---3--x--x--5--x--x--3--x--x--3--3--2--2--0--x--x--2--x--x--|
6 |------------3--x--x--------------------------------0--x--x--|


1 |---------------------------------------------------------|
2 |---------------------------------------------------------|
3 |---2--x--x--2--2-----------------------------------------|
4 |---2--x--x--2--2-----3--x--3--3--3--3--3--x--x--3--4--5--|
5 |---0--x--x--0--0-----3--x--3--3--3--3--3--x--x--3--4--5--|
6 |------------------3--1--x--x--x--x--x--1--x--x--1--2--3--|




Solo de la Intro:

1 |---3--5--5s7--5--3-----------------------------------|
2 |--------------------3--3s13------13v---13--13--12----|
3 |-----------------------------12----------------------|
4 |-----------------------------------------------------|
5 |-----------------------------------------------------|
6 |-----------------------------------------------------|


1 |-----------------------------------------------------------|
2 |-----------------------------------------------------------|
3 |---14------14v---14--14--12--------------------------------|
4 |-------14--------------------------------------------------|
5 |-----------------------------15v--14--15--14--15--16--17v--|
6 1-----------------------------------------------------------|



Solo :

1 |------------------------------------------------------------|
2 |------------------------------------------------------------|
3 |------------------------------------9v---9--10--12--10--9---|
4 |---9--10--9--10--12v--9--10--9--10--------------------------|
5 |------------------------------------------------------------|
6 |------------------------------------------------------------|


1 |-----------------------------------------------------------|
2 |-----------------------------------------------------------|
3 |---------------9--------------------9s10---12v--14-14-14---|
4 |---12--10--12-----------------9s10-------------------------|
5 |------------------10v--10s12-------------------------------|
6 |-----------------------------------------------------------|


1 |-----------------------------------------------------------|
2 |--------------------------------13-----12-----10-----8-----|
3 |---12-------------------------------0------0------0-----0--|
4 |-------15--14--14v--15--15--14-----------------------------|
5 |-----------------------------------------------------------|
6 |-----------------------------------------------------------|


1 |-------------------------------------------|
2 |---12s13-----------12s13-----------12s13---|
3 |---11s12--12--12---11s12--12--12---11s12---|
4 |-------------------------------------------|
5 |-------------------------------------------|
6 |-------------------------------------------|




(Si tienen dudas de las simbologías que aparecen en la tablatura,
consulten la ´Cursos de guitarra´ en la sección ´Recursos´.

Cualquier duda o sugerencia escribanme a [email protected]



MADE IN CHILE.


ACORDES PARA GUITARRA

PIANO UKELELE


COMENTARIOS

Aún no hay comentarios,

¡escribe el primero!

Escribe una pregunta, duda o comentario sobre esta canción, te responderemos a la brevedad.

Las más tocadas de La Polla Records

Toca una Canción al Azar de La Polla Records