No quiero ser un rolling stone
La Polla Records
Acordes

Subida por Javy


Más Versiones
Ver. 2 Ver. 3

Cambiar Cifrado
Americano Latino

Cambiar Tonalidad
-1 +1

Partir Pantalla Imprimir FAQ

+A
-A


Ver solo la LETRA
pa, mick yagger y & company:

intro: RE
RE FA#5 LA SOL RE
bas ta ya , ya no lo aguanto mas
RE FA#5 LA SOL RE
por fa vor en donde hay que firmar
SI
me he aburrido en mi palacio
RE
me he aburrido en mi mansion
SI MI5 LA
me he aburrido por la radio y por la television
SI RE
voy a hacer una escapada y no volvere jamas
MI5 LA
ni siquiera por el pacto que tengo con satanas
RE FA#5 LA SOL RE
bas ta ya ya no lo aguanto mas
RE FA#5 LA SOL RE
por fa vor en donde hay que firmar
SI RE
no sere un viejo loco con aspecto juvenil
SI
aguantando la postura por que
RE SI
no quiero ser un rolling stone
RE SI
no quiero ser un rolling stone

1-------------------------------------------------------------------------
2-------------------------------------------------------------------------
3------------------------------7-8-10-8-7---7-8-10-12-10---7-8-10-8-10-12-
4---5-8-7-----5----5-8-7-----5------------5--------------5----------------
5-5-------8-5----5-------8-5----------------------------------------------
6-------------------------------------------------------------------------
RE FA#5 LA SOL RE
bas ta ya ya no lo aguanto mas
RE FA#5 LA SOL RE
por fa vor en donde hay que firmar
SI RE
managers y productores fabricaros otro gil
SI MI5 LA
pelearos por la pasta pero yo me abro de aqui
SI RE
ya no quiero ser leyenda ni el puto amo del rock
MI5 LA
ni siquiera por el pacto que tengo con el cabron
MI5 LA
ni siquiera por el pacto que tengo con el cabron
RE FA#5 LA SOL RE
bas ta ya ya no lo aguanto mas
RE FA#5 LA SOL RE
por fa vor en donde hay que firmar

1----------------------------------------------------
2----------------------------------------------------
3----------------------------------------------------
4----5-8-7-----5----5-8-7-----5----------------------
5--5-------8-5----5-------8-5------------------------
6----------------------------------------------------
RE SI
no quiero ser un rolling stone
RE SI
no quiero tanta satisfaccion

y acaba con RE


ACORDES PARA GUITARRA

PIANO UKELELE
D
F#5
A
G
B
E5


COMENTARIOS

Aún no hay comentarios,

¡escribe el primero!

Escribe una pregunta, duda o comentario sobre esta canción, te responderemos a la brevedad.

Las más tocadas de La Polla Records

Toca una Canción al Azar de La Polla Records
D
F#5
A
G
B
E5