Esta todo muy mal (Acordes)

La Polla Records

Subida por Yeya

Compartir


Imprimir FAQ
+A
-A

Texto

Desplazamiento

Transportador

Color de Fondo

Archivos

-A
+A
NOTA: Todos los acordes son quintas.



INTRO:  G  C  D  C  G  C  A     C    G


G
No quiero limosna, asqueroso y caradura

Lo que necesito es que te pierdas en la jungla.

G            D
Los paises ricos
  C         D
Debemos ayudar
     G              D
Que bonita es la palabra
C        D
Solidaridad!

      G                D
Que buenos somos los buenos
         C            D
Con los que no tienen nada
     G                 D
Que buenos son los ladrones
       C           D
Con la gente despojada.


G D F C   G D F C


e|-------------------------------|
B|-10>12-12-10>12-12-10>12-10-10-|
G|-------------------------------|
D|-------------------------------|
A|-------------------------------|
E|-------------------------------|


e|-------------------------10-10-10----------|
B|-------12----12-------12^---------12-10----|
G|-12>14----14----14-12-------------------12-|
D|-------------------------------------------|
A|-------------------------------------------|
E|-------------------------------------------|


e|-------------------------------|
B|-------------------------------|
G|-------12----12----------------|
D|-12>14----14-------------------|
A|-------------------------------|
E|-------------------------------|


G    D    F    C
Lala lala lala lala
G    D    F    C
Lala lala lala la
G    D    F    C
Lala lala lala lala
G    D    F    C
Lala lala lala la


e|---------------------------|     |------------------|
B|---------------------------|     |------------------|
G|-10----10-12-10----10-12^--|(X3) |-12^-12^-12^-12^--|
D|----12----------14---------|     |------------------|
A|---------------------------|     |------------------|
E|---------------------------|     |------------------|



G                 D
Hace mucho tiempo que vinieron
C          D
Tus antepasados
   G               D
Avaricia, hambre, odio y guerra
  C           D
Fueron sus regalos

   G                 D
Tortura, miedo y esclavitud
    C              D
En nombre del progreso
   G               D
Y ahora llegais vosotros
       C           D
Para darnosla con queso.

 G
Lo que nos pasa no es casualidad
Parece ser que se reparte mal
Para el que tiene es facil vacilar
Hipocresia desde el bienestar.

G   D     C           D
Ohh ohh esta todo muy mal
G   D     C           D
Ohh ohh esta todo muy mal
G   D     C           D
Ohh ohh esta todo muy mal
G   D     C           D
Ohh ohh esta todo muy mal.


G D F C   G D F C


e|-------------------------------|
B|-10>12-12-10>12-12-10>12-10-10-|
G|-------------------------------|
D|-------------------------------|
A|-------------------------------|
E|-------------------------------|


e|-------------------------10-10-10----------|
B|-------12----12-------12^---------12-10----|
G|-12>14----14----14-12-------------------12-|
D|-------------------------------------------|
A|-------------------------------------------|
E|-------------------------------------------|


e|-------------------------------|
B|-------------------------------|
G|-------12----12----------------|
D|-12>14----14-------------------|
A|-------------------------------|
E|-------------------------------|


G    D    F    C
Lala lala lala lala
G    D    F    C
Lala lala lala la
G    D    F    C
Lala lala lala lala
G    D    F    C
Lala lala lala la


    C        G
No quiero caridad
    C        G
No quiero caridad
    C        G
No quiero caridad
  C             G  C  D  C  G  C  A
Esta todo muy mal.



SIMBOLOS:  >   Hammer On
           ^   Bending



Eso es todo... espero ke les sea de mucha ayuda...
Comentarios o sujerenzias al korreo
[email protected]

"LLÉNATE DE ENERGÍA KON 30 MINUTOS O MÁS DE ROCK AL DÍA"


Video Clip de Esta todo muy mal


ACORDES PARA GUITARRA

PIANO UKELELE
G
C
D
A
F


TOP 20: Las más tocadas de La Polla Records


Acordes

Cerrar
G
C
D
A
F

06.28

x

112