Fín de siglo
La Polla Records
Acordes

Subida por Luisn


Más Versiones
Ver. 2 Ver. 3

Cambiar Cifrado
Americano Latino

Cambiar Tonalidad
-1 +1

Partir Pantalla Imprimir FAQ

+A
-A


Ver solo la LETRA
INTRO:
----------------------------------------
----------------------------------------
----------------------------------------
-------------4-2-0----------------------
---4-2-0---------------4-2-0------------
-0---------2---------0---------2-4-5-7--


A D
Dicen Europa del Este...

A E
la tierra es redonda y yo no entiendo ná

A D
Y chorizamos algo de plutonio

A E
la ciencia no cobra y tiene que vivir

A D
Y dicen cosas sobre el tercer mundo

A E
para ver pobreza no hay que irse de aquí

A D
Pero van a ponernos una enorme valla

A E
porque las chabolas ensucian la visión


D-A

D A
Mi mundo fin de siglo
D A
Roban ojos a los niños
D A
La bomba está a tu alcance
D A
si pagas su precio



-INTRO- (Mientras que la otra guitarra toca A D A E)


A D A E
El que mueve la ruleta no te enseñará

A D A E
Son rebeldes malcriados como sus papás


A D A E (x2)


A D
Hijos de encargo y el papá que aborta

A E
tras un embarazo poco deseado

A D
Y Mari Puri es maja en la cama

A E
pero un poco sosa cuando ha terminao

e --------------------------------------------------
B --------------------------------------------------
G -9--9-10-9-7-9-10--10-10-12-10-9--9-10-9-7-9-10-9-
D --------------------------------------------------
(Mientras que la otra guitarra toca A D A E)


A D
Tomemos algo por nuestros colegas

A E
por vivos y muertos nos tomamos dos

A D
y luego hablemos de la Arqueología

A E
la piedra de costo que se nos perdió

D -------------4-2-0---------------------------------
A ---4-2-0---------------4-2-0-----------------4-2-0-
E -0---------2---------0---------2-4-5-7-----0-------


ACORDES PARA GUITARRA

PIANO UKELELE
A
D
E


COMENTARIOS

Aún no hay comentarios,

¡escribe el primero!

Escribe una pregunta, duda o comentario sobre esta canción, te responderemos a la brevedad.

Las más tocadas de La Polla Records

Toca una Canción al Azar de La Polla Records
A
D
E