Hipócritas (Acordes)

La Polla Records

Subida por santo

Compartir


Imprimir FAQ
+A
-A

Texto

Desplazamiento

Transportador

Color de Fondo

Archivos

-A
+A
HPOCRITAS - La polla Records



Pues aca va el Tab de este temazo de la polla

intro

 La la la lalala....etc

intro 1
|-------------------------------|
|-------------------------------|
|-------------------------------|
|--7-7--5-5---------------------|
|--5-5--2-2--5--------7---------|
|------------3-3-3-3--5-5-5-5---|


Luego antes de empezar a cantar:

hacer con palm mute (la segunda guitarra ejecuta intro 1 con palm mute)

intro 2 x4
|------------------------------------------------------------------|
|------------------------------------------------------------------|
|------------------------------------------------------------------|
|------------------------------------------------------------------|
|--5---5----2---2------2-0---7-7-----5---5---2---2------0-2-5-7-7--|
|----5---5----3---3--3-----3-5-5-------5---5---3---3--3-------5-5--|


Estrofa 1:

Es un escandalo el asunto del sexo....etc      //* igual que intro 1 solo cambian los ritmos*//

y los gritos de tu mujer no me dejan dormir..


Punteo 1

|-----10-15-----10----10-14-10----14-------10--15--10--15-----10-15-10-15----10-15-10-14--|
|--10--------------10----------10--------10-------10--------10----------------------------|
|-----------------------------------------------------------------------------------------|
|-----------------------------------------------------------------------------------------|
|-----------------------------------------------------------------------------------------|
|-----------------------------------------------------------------------------------------|


Punteo 2   /*Todo el punteo va acompañado con el ritmo de la intro 1*/


|-------------------------------------------------------10---10---10--------------------|
|----------------7-8-7-8-7---------------7-8-10-8-7---7----7----7----7--7-7-8-7---------|
|--7-7-7-7-7-9-7-----------7-7-7-7-7--------------------------------------------9-7-----|
|------------------------------------9-7--------------------------------------------9-7-|
|---------------------------------------------------------------------------------------|
|---------------------------------------------------------------------------------------|


|---------------------------------------------------------|
|---------7-7h10-7----------------------------------------|
|-----7-9----------9-7-9-9/109-7---7-7-------------------|
|-7-9-----------------------------9-----------------------|
|---------------------------------------------------------|
|---------------------------------------------------------|


Estrofa 2:

Es un escandalo que maten a los negros......Etc      /* Nuevamente se toca igual que  intro 1, solo que cambiando el ritmo
Pero no os da problema que os jodan el ambiente         y con Palm Mute*//


Coro:


Hpocritas catolicos, hipocritas catolicos,   //*el coro es muy sencillos la primera guitarra ejecuta punteo 1 mientras la
                                                segunda.....si adivinaron intro 1*//º
hipocritas catolicos, hipocritas cagaos


Fin:

     Cagaoos, cagaos, cagaos..etc

|----------------------|
|----------------------|  /*guitarra 1*/
|----------------------|
|--7--7---7---7---7----|
|---7---7---7---7--7---|
|----------------------|

|----------------------|
|----------------------|  /*guitarra 2*/
|----------------------|
|----------------------|  y bueno hasta ke acabe
|--7--7--7--7--7--7----|
|--5--5--5--5--5--5----|



Version Del ´disco En directo´ de 1988



///* Esta tab fue hecha, integramente por mi, sacando cada nota y punteo,
    cualkier comentario correcion puteada a : [email protected]*///



/Un saludo al Coco y al Ivan, cooooco, dexter termine guajaaa///


MADE IN CHILE ...aguante la polla, aguante la U


Video Clip de Hipócritas


ACORDES PARA GUITARRA

PIANO UKELELE


TOP 20: Las más tocadas de La Polla Records


Acordes

Cerrar

17.27

x

123