Iros todos a la mierda
La Polla Records
Acordes

Subida por Yuli


Más Versiones
Ver. 2 Ver. 3

Cambiar Cifrado
Americano Latino

Cambiar Tonalidad
-1 +1

Partir Pantalla Imprimir FAQ

+A
-A


Ver solo la LETRA
Intro:

(Base: A D E A)


D |--0--7--7-7-6-4---4----------------------------------7---6---|
A |----------------7---5------0-5-7---5-7-5-4-----------7---6---|
E |-------------------------------------------7--5------5---4---|




F# A E
Putos politicos del mundo entero |
F# A E |
siempre A LA orden del puto dinero |PM
F# A E |
no nos dejais ninguna otra salida |
F# A E |
que hacer del mierdo nuestra forma de vida /


F# A
Putos imbeciles, "correveidiles"
E B
prostituyendose de tapadillo
F# A
justificando lo que otros deciden
E B
putos estomagos agradecidos


Puente
base: F# A E B

Escuchen bien esta parte, tiene un solo que casi ni se escucha..
aca se los dejo

B |--7--------10----8/10-10-10-10------9-----------|
G |--------9--------7/9--9--9--9---------9----7/9~-|
D |------------------------------------------------|


F# A E
Siempre trapicheando con los votos |
F# A E |
para cagarnos en nuestra miseria |PM
F# A E |
viviendo alegremente de nosotros |
F# A E |
siempre a nuestro servicio ¡¡Vaya jeta!! /



F# A
Me la trae floja, titeres de Marte
E B
si traeis pilas o vienen a parte
F# A
pero tengo una duda, que me pone malo
E B
¿sois de madera o es que vais de palo?


A E B
Iros todos a la mierda, estamos hartos de la corrupcion
A E B
Todos a la puta mierda, estamos hartos ¡me cago en dios!



F# A E
Cobardes y ladrones escondidos |
F# A E |
siempre al calor del sol que mas calienta |PM
F# A E |
cada vez que sacamos la cabeza |
F# A E |
mandais la policia y nos revienta /


F# A
Cuando la muerte es mejor que la vida
E B
salen las ratas de la alcantarilla
F# A
cuando la desesperacion estalla
E B
llega la hora de la venganza


A E B
Iros todos a la mierda, estamos hartos de la corrupcion
A E B E
Todos a la puta mierda, estamos hartos ¡me cago en dios!


Solo: (Base: A E B)

E |---------------------------------------------------
B |--10-x-x-x-x-10-x-x-x-x-10-x-x-10-x-x-x-x 12^/10---
G |--9--x-x-x-x-9--x-x-x-x-9--x-x-9--x-x-x-x-10^------
D |---------------------------------------------------
A |---------------------------------------------------
E |---------------------------------------------------

E |------------------------------------------12^~---
B |--10-x-x-x-x-10-x-x-x-x-10-x-x-10-x-x-x-x 10~---
G |--9--x-x-x-x-9--x-x-x-x-9--x-x-9--x-x-x-x----------
D |---------------------------------------------------
A |---------------------------------------------------
E |---------------------------------------------------

E |---------------------------------------------------
B |--10-x-x-x-x-10-x-x-x-x-10-x-x-10-x-x-x-x 12^/10---
G |--9--x-x-x-x-9--x-x-x-x-9--x-x-9--x-x-x-x-10^------
D |---------------------------------------------------
A |---------------------------------------------------
E |---------------------------------------------------

E |---------------------------------------------(bien rapido)-----|
B |--10-x-x-x-x-10-x-x-x-x-10-x-x-10-x-x-x-x-10^-9-10-9-10--12^~--|
G |--9--x-x-x-x-9--x-x-x-x-9--x-x-9--x-x-x-x----------------------|
D |---------------------------------------------------------------|
A |---------------------------------------------------------------|
E |---------------------------------------------------------------|



Puente
(Base: A D E A)


D |-----7--7-7-6-4---4----------------------------------7---6---|
A |--0-------------7---5------0-5-7---5-7-5-4-----------7---6---|
E |-------------------------------------------7--5------5---4---|



F# A E |
Cuando la muerte es mejor que la vida |PM
F# A E |
salen las ratas de la alcantarilla |
F# A
cuando la desesperacion estalla
E B
llega la hora de la venganza


A E B
Iros todos a la mierda, de uno en uno o en mogollon
A E B
Todos a la puta mierda, valientemente, con decision!

A E B
Iros todos a la mierda, estamos hartos de la corrupcion
A E B E E E
Todos a la puta mierda, estamos hartos ¡Me cago en dios!



Cualqier duda, a [email protected]
Saludos!


NOTA: Todos los acordes son con quintas


ACORDES PARA GUITARRA

PIANO UKELELE
D
A
E
F#
A
B
G


COMENTARIOS

Aún no hay comentarios,

¡escribe el primero!

Escribe una pregunta, duda o comentario sobre esta canción, te responderemos a la brevedad.

Las más tocadas de La Polla Records

Toca una Canción al Azar de La Polla Records
D
A
E
F#
A
B
G