Iván
La Polla Records
Acordes

Subida por isra


Más Versiones
Ver. 2 Ver. 3 Ver. 4

Cambiar Cifrado
Americano Latino

Cambiar Tonalidad
-1 +1

Partir Pantalla Imprimir FAQ

+A
-A


Ver solo la LETRA
Después de la Intro


Esta historia que pudo ser verdad, parece una mentira, la vamos a contar.

E|---------------------|
B|---------------------| (x2)
G|--9-----------9------|
D|--9---9---7---9------|
A|--7---9---7---7------|
E|------7---5----------|


Solo

E|-------------------------------------------------------------------------------------------------------------------|
B|-------------------------------------------------------------------------------------------------------------------|
G|---11-12-11-12-11-9--9-9-11-9-11-9-----------------------9-11-11-11-9-----12-12-12-11-11--11-12-12--9-11-12-11-9--|
D|-----------------------------------9--9-10-9-7^-5-7^-------------------9-----------------9-------------------------|
A|----------------------------------------------------7--------------------------------------------------------------|
E|-------------------------------------------------------------------------------------------------------------------|

En la Rusia...

E|---------------------|
B|---------------------| (x4)
G|--9-----------9------|
D|--9---9---7---9------|
A|--7---9---7---7------|
E|------7---5----------|


Allá estaba Iván (Se repite muchas veces)

E|----------|
B|----------|
G|--9---7---|
D|--9---7---|
A|--7---5---|
E|----------|

Cuando termina hace algo parecido a ésto:

E|---------------------------|
B|---------------------------|
G|--9---12---9---7---12---9--|
D|--9---12---9---7---12---9--|
A|--7---10---7---5---10---7--|
E|---------------------------|

Un buen día que estaba...

E|---------------------|
B|---------------------| (x4)
G|--9-----------9------|
D|--9---9---7---9------|
A|--7---9---7---7------|
E|------7---5----------|

Allá estaba Iván (Se repite muchas veces)

E|----------|
B|----------|
G|--9---7---|
D|--9---7---|
A|--7---5---|
E|----------|

Cuando termina:

E|---------------------------|
B|---------------------------|
G|--9---12---9---7---12---9--|
D|--9---12---9---7---12---9--|
A|--7---10---7---5---10---7--|
E|---------------------------|


Solo

E|-------------------------------------------------------------------------------------------------------------------|
B|-------------------------------------------------------------------------------------------------------------------|
G|---11-12-11-12-11-9--9-9-11-9-11-9-----------------------9-11-11-11-9-----12-12-12-11-11--11-12-12--9-11-12-11-9--|
D|-----------------------------------9--9-10-9-7^-5-7^-------------------9-----------------9-------------------------|
A|----------------------------------------------------7--------------------------------------------------------------|
E|-------------------------------------------------------------------------------------------------------------------|

No canta nadie

E|----------|
B|----------|
G|--9---7---|
D|--9---7---|
A|--7---5---|
E|----------|


Cuando termina:

E|---------------------------|
B|---------------------------|
G|--9---12---9---7---12---9--|
D|--9---12---9---7---12---9--|
A|--7---10---7---5---10---7--|
E|---------------------------|


Dando saltos a la pata coja...

E|---------------------|
B|---------------------| (x2)
G|--9-----------9------|
D|--9---9---7---9------|
A|--7---9---7---7------|
E|------7---5----------|


Final

E|----------------------------------|
B|----------------------------------|
G|--9---9---9---9----------------9--|
D|--9---9---9---9---9---12---9---9--|
A|--7---7---7---7---9---12---9---7--|
E|------------------7---10---7------|

Evaristo!! Evaristo!! Un bote, dos botes, fascista el que no bote!


Ésta es una canción que hay que oír mucho para poder tocarla bien; sobre todo el solo, para poder coger el ritmo.

Yo la toco así, pero hay partes que podrían estar mucho mejor.

Para cualquier duda o sugerencia: [email protected]

-Wk-


ACORDES PARA GUITARRA

PIANO UKELELE


COMENTARIOS

Aún no hay comentarios,

¡escribe el primero!

Escribe una pregunta, duda o comentario sobre esta canción, te responderemos a la brevedad.

Las más tocadas de La Polla Records

Toca una Canción al Azar de La Polla Records