Nadie llorara por ti
La Polla Records
Acordes

Subida por jose


Más Versiones
Ver. 2

Cambiar Cifrado
Americano Latino

Cambiar Tonalidad
-1 +1

Partir Pantalla Imprimir FAQ

+A
-A


Ver solo la LETRA
                        RE
cuando vivas dentro de una prostituta
RE
y trabajes en un club de carretera
DO SOL RE
no no llorara nadie por ti
RE
cuando te desangres de haber abortado
RE
por que tu dinero no fue suficiente
DO SOL RE
no no llorara nadie por ti

(punteo)

1--------------------------------------
2--------------------------------------
3--------------------------------------
4-------7-5-4--------------------------
5---5-5-------3-3-7-5-3-------2-7-5----
6-----------------------3-3-3----------



RE
cuando seas un mendigo apaleado
RE
y te metan en un ataud sin nombre
DO SOL
no, no llorara nadie no
RE FA5 DO SOL X 3

RE DO SOL RE
ooooooooh oooooooh oooooooh oooooooh
RE FA5 DO SOL X 3

RE
cuando la pobresa te puje a la uida
RE
y los peces coman tu cuerpo sin vida
DO SOL RE
no, no llorara nadie por ti
RE
cuando la metralladora te aiga tronado
RE
junto a tu cadaver de niño soldado
DO SOL RE
no, no llorara nadie por ti
RE DO SOL RE
no llorara nadie por ti
RE DO SOL RE
no llorara nadie por ti
RE DO SOL
no llorara nadie no

RE FA5 DO SOL X2

UNA GUITARRA SIGUE CON RE DO SOL
Y LA OTRA HACE ESTE PUNTEO

1--------------------------------------------------------
2--------------------------------------------------------
3--------------------------------------------------------
4------7-5-4------------------------7-5-4--------------2-
5--5-5-------3-3--7-5-3-----2-7-5-5-------3-3-7-5-3--2---
6-----------------------3-3-------------------------3----


ACORDES PARA GUITARRA

PIANO UKELELE
D
C
G
F5


COMENTARIOS

Aún no hay comentarios,

¡escribe el primero!

Escribe una pregunta, duda o comentario sobre esta canción, te responderemos a la brevedad.

Las más tocadas de La Polla Records

Toca una Canción al Azar de La Polla Records
D
C
G
F5