No Mas Presos
La Polla Records
Acordes

Subida por mng1854


Más Versiones
Ver. 2 Ver. 3

Cambiar Cifrado
Americano Latino

Cambiar Tonalidad
-1 +1

Partir Pantalla Imprimir FAQ

+A
-A


Ver solo la LETRA
intro
RIFF 1:
G|-------------------------------------------|
D|-------------------------------------------|
A|---------4---------------------------------|
E|--1-------------3--------------------------|

RIFF 2:
G|-------------------------------------------|
D|-------------------------------------------|
A|---------4---------3-----------------------|
E|--1-------------3----4-5-4-----------------|




No a las cárceles del Estado asesino
¡No!
No más esconder los errores del sistema
¡No!
No al Estado terrorista que encierra
¡No!
a quien le sobra y a quien lucha contra él
¡No!
No queremos nadie preso y lucharemos por eso
¡No!

Esto va en la siguiente parte:
G|-------------------------------------------|
D|-------------------------------------------|
A|-1-1---1-1---1-1-------1-1---1-1---11------|
E|-------------------------------------------|

FA-FA FA-FA FA-FA
¡No! ¡NO! No más presos! x2
En el solo de guitarra:

G|-------------------------------------------|
D|------------------2-3----------------------|
A|---------4--4-4-3-----4-3------------------|
E|--1-1--1------------------4----------------|

G|-------------------------------------------|
D|-------------------------------------------|
A|---------4--4-4-3--------------------------|
E|--1-1--1----------4-1-1--------------------|


Unas pequeñas correcciones!!!!
Pablo_rabioso


ACORDES PARA GUITARRA

PIANO UKELELE


COMENTARIOS

Aún no hay comentarios,

¡escribe el primero!

Escribe una pregunta, duda o comentario sobre esta canción, te responderemos a la brevedad.

Las más tocadas de La Polla Records

Toca una Canción al Azar de La Polla Records