Radio crimen
La Polla Records
Acordes

Subida por Bajista61


Más Versiones
Ver. 2 Ver. 3

Cambiar Cifrado
Americano Latino

Cambiar Tonalidad
-1 +1

Partir Pantalla Imprimir FAQ

+A
-A


Ver solo la LETRA
Allá va la tablatura para guitarra de esta peacho canción

de la polla records. Está todo menos el solo y la parte final.

¡A Disfrutarla!


Escucha la canción para ver cuantas veces repite esto, es la intro:

E||--------------------------|-----------||
B||--------------------------|-----------||
G||-----------4--4--4--------|-----5--5--||
D||--2--2--2--4--4--4--5--5--|--5--5--5--||
A||--2--2--2--2--2--2--5--5--|--5--7--7--||
E||--0--0--0-----------3--3--|--3--------||


Cuando dice: "Todo es como debe de ser, todo va como tiene que ir"
la guitarra pega golpes tras cada verso, esos golpes de sonido son:

E|-----------||
B|-----------||
G|--9--9--9--||
D|--9--9--9--||
A|--7--7--7--||
E|-----------||


Cuando dice: "Policía en formación, digamos que es una provocación"
hay otro cambio y toca estas quintas:

E||--------------------------||
B||--------------------------||
G||--4--4--------7--7--------||
D||--2--2--4--4--5--5--7--7--||
A||--------2--2--------5--5--||
E||--------------------------||


Después de decir "...Y Radio Crimen, que te ladra sin parar, tu no eres
tu no existes" hace este punteillo, o parecido:

E||---------------------------|--------------------------|
B||---------------------------|--------------------------|
G||---------------------------|--------------------------|
D||--7--9--12~---7--9--12--9~-|----7--9--12~---7--9--12--|
A||---------------------------|--------------------------|
E||---------------------------|--------------------------|



-------------------------|
-------------------------|
-------------------------|
--9~---12b---12b-12r-----|
-------------------------|
-------------------------|

Después hace todo palm mutes en E, acabando en E más agudo, en la 5º cuerda.
Así es como hace esta parte de tralla.

Luego hace lo de la intro, y a continuación el solo, teniendo de fondo los acordes de la intro.

Al final es lo mismo que antes del solo, palm mutes y acabados en E agudo.


Para dudas, capones, felicitaciones o ganas de perder tiempo, escribid a:

[email protected]


Ale, que os cunda!


ACORDES PARA GUITARRA

PIANO UKELELE


COMENTARIOS

Aún no hay comentarios,

¡escribe el primero!

Escribe una pregunta, duda o comentario sobre esta canción, te responderemos a la brevedad.

Las más tocadas de La Polla Records

Toca una Canción al Azar de La Polla Records