Radio krimen
La Polla Records
Acordes

Subida por gecevi


Más Versiones
Ver. 2 Ver. 3 Ver. 4 Ver. 5

Cambiar Cifrado
Americano Latino

Cambiar Tonalidad
-1 +1

Partir Pantalla Imprimir FAQ

+A
-A


Ver solo la LETRA
Parte 1: Tras intro de guitarra  ( todo es komo debe ser...)


G|-----------------
D|----------------- x 14
A|----2-22---55-0--
E|--00-----33------

Parte 2: ( policía en formación, digamos ke es una provocación...)

G|---------------------
D|--------------------- x4
A|--7-7-----10-10------
E|------7-7-------10-10

Parte 3: ( radio krimen, ke te ladra sin parar...)

G|----------------
D|---------------- x4
A|----------5-----
E|--0-0-0-77------

Parte 4: ( parababambambam no te fies mas..)

G|----------------
D|---2--5--7--2--- x8
A|--0--3--5--0----
E|----------------

Parte 5: ( y todo va...)

G|------
D|------ * se repite un monton de veces
A|--7*--
E|------

Parte 1 x4 (dame veinte duros pal tren colega!)

Parte 3 x4

Parte 1 x8 durante solo de guitarra

Parte 5 ( Radio krimen emitiendo!)

Nota: en el disco “La polla en tu recto” se inicia la canción
kon la parte 3, 8 veces.


ACORDES PARA GUITARRA

PIANO UKELELE


COMENTARIOS

Aún no hay comentarios,

¡escribe el primero!

Escribe una pregunta, duda o comentario sobre esta canción, te responderemos a la brevedad.

Las más tocadas de La Polla Records

Toca una Canción al Azar de La Polla Records