Susanita tiene un marrón
La Polla Records
Acordes

Subida por seviches


Más Versiones
Ver. 2 Ver. 3

Cambiar Cifrado
Americano Latino

Cambiar Tonalidad
-1 +1

Partir Pantalla Imprimir FAQ

+A
-A


Ver solo la LETRA
Akí os dejo otra del ultimo de la polla:


* Un asterisco entre dos akordes kiere decir ke va todo unido.



INTRO
*Repetir tres veces los dos akordes unidos del asterisco.

E.------------/-------------//-------------------------/----------------------------
B.------------/-------------//-------------------------/----------------------------
G.------------/---X 3-------//-----5----4--*--5--------/----------------------------
D.--2--*--3---/-------------//-----5----4-----5----3---/----------------------------
A.--2-----3---/-------------//-----3----2-----3----3---/----------------------------
E.--0-----1---/-------------//---------------------1---/----------------------------

VERSO

E.------------------------------------------------------------------------/-----------
B.------------------------------------------------------------------------/-----------
G.---------------------------------------5--------------------------------/----X 2----
D.--3------------------------------------5---------------3----------------/-----------
A.--3------------------------------------3--3--3--3...---3----------------/-----------
E.--1--1--1--1--1--1--1--1--1--1...----------------------1--1--1--1--1...-/-----------

SUSANITA DESGRACIADA KE VA A SER DE TI

POR KERER IR DE ENROLLADA TIENES KE SUFRIR
E.----------------------------------------------------------------
B.----------------------------------------------------------------
G.----------------------------------------------------------------
D.---5--5--2-----7--7--3-----5--5--2------------------------------
A.---3--3--0--3--5--5--1--5--3--3--0---3--5-----------------------
E.------------1-----------3------------1--3-----------------------

AHORA SE TOKA OTRA VEZ EL VERSO
Y LO DE DESPUÉS Y LUEGO EL SOLO

SOLO
E.----------------------------------/------------------------------------------
B.---6------------------------------/---5--------------------------------------
G.------5--2-----3--2--3^5^3--------/---5--3-----3^5^3--2----------------------
D.------------3--------------5------/----------5----------5--3-----------------
A.----------------------------------/------------------------------------------
E.----------------------------------/------------------------------------------

AHORA OTRA VEZ LO DE SUSANITA DESGRACIADA.....
MIENTRAS KANTA ESTO SE TOKA LA PARTE DEL VERSO
Un dia susanita, le kiso echar de kasa,
Le dijo largate de akí, KE TE FOLLEN!
Le dio una paliza, pero ella decidida,
Se lo volvio a repetir, KE TE FOLLEN!
Volvio A decir lo mismo, kon muxa mala ostia
Según salio del hospital,
Mientras se lo decía, le dio kon una estaka,
Y le dejó llorando

AHORA OTRA VEZ EL VERSO

SUSANITA TIENE UN MARRÓN!!!!!

E.--------------------------------------------
B.--------------------------------------------
G.--2--2--2----------3^5----------------------
D.-------------5--3---------------------------
A.--------------------------------------------
E.--------------------------------------------

A disfrutarla
AGUR!!!!!


ACORDES PARA GUITARRA

PIANO UKELELE


COMENTARIOS

Aún no hay comentarios,

¡escribe el primero!

Escribe una pregunta, duda o comentario sobre esta canción, te responderemos a la brevedad.

Las más tocadas de La Polla Records

Toca una Canción al Azar de La Polla Records