Tan Harto
La Polla Records
Acordes

Subida por Jeremy


Más Versiones
Ver. 2

Cambiar Cifrado
Americano Latino

Cambiar Tonalidad
-1 +1

Partir Pantalla Imprimir FAQ

+A
-A


Ver solo la LETRA
NOTA: Todos los akordez van en quintas...esta fazilona la rola.


INTRO: E C F G, E C D C (x2)

C F C G
Por mi puede reventar el planeta en su totalidad
C F C G
Kiero ver la civilizacion destruyendose ante mi!

A F C G
Harto se ser un bobo multinacional
A F C G
Harto de tanta loteria nuclear
A F C G
Conservadores en conserva y caducaos (Tan harto!)
A F C G
Harto de chulos de uniforme, harto de tí

CORO
C F C F
Como te diria yo,
C F C F
Estoy harto de la situación
C F C F
Estoy harto de tener razón
C F C G
Estoy harto de tanto cabrón

e|------------------------------------------|
B|------------------------------------------|
G|------------------------------------------|
D|---0-2------------------0-2---------------|
A|-3-----0-2-3---0-2----3-----0-2-3-5-------|
E|-------------3-----1----------------------|

C A G F
Harto de ver mi dignidad
C A F-G F-G
Y de su forma de orinal
A F C G
Hararto de respetar tu mundo criminal
A F C G
Harto de oirte rebuznar tan educao
A F C G
Harto de ser el sospechoso habitual (Tan harto!)
A F C G
Y de aguantar y de aguantar y de aguantar...

SOLO

e|----------------------------------------------------------------|
B|----------------------------------------------------------------|
G|-10>12-10-------8-8--10>12-------10-10--10>12-10-------8-8-8^10-|
D|----------12-10------------12-10-----------------12-10----------|
A|----------------------------------------------------------------|
E|----------------------------------------------------------------|

A G A

G A
Harto de ser el sospechoso habitual
G PM: A F C G (X2)
Y de aguantar y de aguantar y de aguantar

CORO
A F C G
Como te diria yo,
A F C G
Estoy harto de la situación
A F C G
Estoy harto de tener razón
A F C G
Estoy harto de tanto cabrón

C F C F

C F C G
Estoy tan harto de tanto aguantar
C F C G
Estoy tan harto y mas que voy a estar
C F C G
Estoy tan harto que ya estoy cansao


e|----------------------------------|
B|----------------------------------|
D|----------------------------------|
A|-7---8-8-8-8-10-7-----------------|
E|---8--------------8-10-10-10 8-8--|


C F C G
Estoy tan harto que ya estoy cansao
C F C G A
Estoy a un minuto de explotar



SIMBOLOS: > Hammer on
^ Bending
PM Palñm Muting


Eso es todo... espero les sirva mas ke la anterior...
sugerenzias o comentarios al korreo
[email protected]


ACORDES PARA GUITARRA

PIANO UKELELE
E
C
F
G
D
A


COMENTARIOS

Aún no hay comentarios,

¡escribe el primero!

Escribe una pregunta, duda o comentario sobre esta canción, te responderemos a la brevedad.

Las más tocadas de La Polla Records

Toca una Canción al Azar de La Polla Records
E
C
F
G
D
A