Tan segura y natural (Acordes)

La Polla Records

Subida por cachalfa

Compartir


Imprimir FAQ
+A
-A

Texto

Desplazamiento

Transportador

Color de Fondo

Archivos

-A
+A
INTRO: A C G C (x4) - A C G C (PM x4)

--------------------------------------------5~-
------------------------------------------5~---
---0-2-4-5~--5-4-2~-----0-2-4-5~--5-4-2~-------
-2--------------------2------------------------
-----------------------------------------------
-----------------------------------------------

A         C          G          C
Diez mil generaciones se dice pronto

A         C          G          C
pero es el precio que hay que pagar

A        C         G         C
pa que unos cuantos ganen dinero

A        C         G - C
Con la industria nuclear.

--------------------------------------------5~-
------------------------------------------5~---
---0-2-4-5~--5-4-2~-----0-2-4-5~--5-4-2~-------
-2--------------------2------------------------
-----------------------------------------------
-----------------------------------------------

A         C          G          C
Hay beneficios de bancos y de empresas

A      C       G      C
tras Mururoa y Chernobyl

A       C        G        C
esta gentuza no tiene nombre

A      C      G - C
No merecen existir.


-----------------
-----------------
------5-5--7-7---
-7-7--5-5--7-7-5-
-7-7--3-3--5-5-5-
-5-5-----------3-

GUITARRA 1:
--------------------------------------------
--------------------------------------------
--10-10-10-9--12-12-5---10-10-10-9--12-12-5-
--10-10-10-9--12-12-5---10-10-10-9--12-12-5-
--8--8--8--7--10-10-3---8--8--8--7--10-10-3-
--------------------------------------------

GUITARRA 2:
------------------------------------
------------------------------------
-----5-5-----5---------5-5-------5--
-3-3-5-5-5-5-5----3-3--5-5--5-5--5--
-3-3-3-3-5-5-3----3-3--3-3--5-5--3--
-1-1-----3-3------1-1-------3-3-----


A C G C

A          C           G           C
Y no se ha visto nunca que un accionista

A      C       G       C
viva dentro de una central

A        C         G         C
y eso que hablamos de una energía

A      C        G - C
tan segura y natural.

-------------------------------------------------
-------------------------------------------------
------5-5----------------------5-5---------------
-7-7--5-5-5-----3---3-5---7-7--5-5-5-----3---3-5-
-7-7--3-3-5-----3---3-5---7-7--3-3-5-----3---3-5-
-5-5------3---0-1-0-1-3---5-5------3---0-1-0-1-3-


A                G
No se puede ver, ni se puede entrar

A               G
No puede pasar, zona militar.


SOLO:
----------------------------------------------5----------3-
-3~5~3~5~--5-3-----3~5~3~5~--5-3------3~5~3~5~---3~5~3~5~--
---------------5~----------------5~------------------------
-----------------------------------------------------------
-----------------------------------------------------------
-----------------------------------------------------------


---------3----------5----------3----------3----------5----------3-
-3~5~3~5~---3~5~3~5~---3~5~3~5~---3~5~3~5~---3~5~3~5~---3~5~3~5~--
------------------------------------------------------------------
------------------------------------------------------------------
------------------------------------------------------------------
------------------------------------------------------------------

A          C         G          C
Salvación, religión, desolación.

A         C          G - C
Las tinieblas y el horror.


-----------------
-----------------
------5-5--7-7---
-7-7--5-5--7-7-5-
-7-7--3-3--5-5-5-
-5-5-----------3-


A C G C (PM)

GUITARRA 1:
--------------------------------------------
--------------------------------------------
--10-10-10-9--12-12-5---10-10-10-9----------
--10-10-10-9--12-12-5---10-10-10-9--5-5-7-7-
--8--8--8--7--10-10-3---8--8--8--7--5-5-7-7-
------------------------------------3-3-5-5-

GUITARRA 2:
-------------------------------------
-------------------------------------
-----5-5-----5---------5-5-----------
-3-3-5-5-5-5-5----3-3--5-5--5-5--7-7-
-3-3-3-3-5-5-3----3-3--3-3--5-5--7-7-
-1-1-----3-3------1-1-------3-3--5-5-


Video Clip de Tan segura y natural


ACORDES PARA GUITARRA

PIANO UKELELE
A
C
G


TOP 20: Las más tocadas de La Polla Records


Acordes

Cerrar
A
C
G

05.25

x

109