Txus
La Polla Records
Acordes

Subida por Luisfernandodaza


Más Versiones
Ver. 2 Ver. 3 Ver. 4 Ver. 5 Ver. 6

Cambiar Cifrado
Americano Latino

Cambiar Tonalidad
-1 +1

Partir Pantalla Imprimir FAQ

+A
-A


Ver solo la LETRA
Esta es una correción de la tab de txus que ya hay.


Esta es mi primera tab que mando, haber que tal sale.


Parte 1:
||----------|
||----------|
||--5-------|
||--3-------|
||--3-------|
||----------|
Uoooo,uoooooouooooo,uooooooo...
Txus es un alcoholico,
Txus esta nervioso...

Parte 2:
||----------|
||----------|
||----------|
||--3--5----|
||--3--5----|
||--1--3----|

Tiene alucinaciones,
de su lucha sale, alcohol irviendo...

(aqui se hace la Parte 1.)


(Mientras no canta se hace la Parte 2.)

Esto no puede ser
esto no hay quien lo aguante
tiene que llevarse a alguien por delante.


Txus esta furioso
Txus esta violento
alguien va a pagar sus nervios!

(En estas dos ultmas estrofas es todo el rato la
Parte 1.

Parte 3:

||-------------|
||-------------|
||-------------|
||-------------|
||-5--4--2-----|
||-3--2--2-----|

Se monta una bronca,
Txus esta en el suelo,
ahora esta contento,muerto!!

Punteo:

||-------0-------0---------0-------0-----0---------|
||-1-1-3---3-1-----3-1-1-3---3-1-----3-----3-1---1-|
||-------------2-----------------2-----2-------2---|
||-------------------------------------------------|
||-------------------------------------------------|
||-------------------------------------------------|

Parte 4:

||-----------------------------|
||-----------------------------|
||--5--------------------------|
||--5--3--5--------------------|
||--3--3--5--------------------|
||-----1--3--------------------|

En su tumba hay
latas de cerveza
Txus no bebas tanto
no pierdas la cabeza.

Txus no bebas tanto,
no pierdas la cabeza
no pierdas la cabeza
no pìerdas la cabeza!!


Bueno, esta es mi primera tablatura que mando,
espero que os guste.

Ire mejorando.... ;)

La canción es de lo mas facil que hay y el punteo
es lento.

Bueno, saludos a todos!


ACORDES PARA GUITARRA

PIANO UKELELE


COMENTARIOS

Aún no hay comentarios,

¡escribe el primero!

Escribe una pregunta, duda o comentario sobre esta canción, te responderemos a la brevedad.

Las más tocadas de La Polla Records

Toca una Canción al Azar de La Polla Records