Ya no quiero ser yo
La Polla Records
Acordes

Subida por Romelillo


Más Versiones
Ver. 2 Ver. 3 Ver. 4 Ver. 5 Ver. 6

Cambiar Cifrado
Americano Latino

Cambiar Tonalidad
-1 +1

Partir Pantalla Imprimir FAQ

+A
-A


Ver solo la LETRA
NOTA: Todas los akordez son quintas.


INTRO: F# D

F# E
Vamos entrando...
F# D A E
Entraleee.... un.... dos...tres!!!

F# D
LA LA lara LA lara LA LA lara LA lara
F# E
LA LA lara lala LA LA LA LA lara LA LA
F# D
LA LA lara LA lara LA LA lara LA lara
A E
LA LA lara lala LA LA LA LA lara LA LA

F# D
Me he mirado en el espejo
F#
y no me he reconocido en el extrano
E
que se ve tras el cristal.

F# D
Si el pasado y el presente
A
se reflejan y no mienten
E
tengo que hacer algo por mi porvenir.


A E
Ya no quiero ser yo,
D A D A E
Ya no quiero ser yo, ya no.
C# F# D A
Mi paciencia tiene un limite,
C# F# E
y se acaba hoy. Wo wo wo wo wo wo wo
C# F# D A
Hoy voy a matar esta vida gris
C# F# E
Quiero enloquecer!! Wo wo wo wo wo wo wo

F# D
LA LA lara LA lara LA LA lara LA lara
F# E
LA LA lara lala LA LA LA LA lara LA LA
F# D
LA LA lara LA lara LA LA lara LA lara
A E
LA LA lara lala LA LA LA LA lara LA LA

F# D
Voy a ser el rey de Roma
F#
O el alcalde de Pamplona
E
O el payaso que dispare sobre ti.

F# D
Entraro en otra persona
A
O en los huevos de Mahoma
E
Da lo mismo quiero estar fuera de mi


SOLO
F# D A E
e|-------12--------------------------------------------------|
B|----14----14-------------------------------14--------------|
G|-14-------14----14-14-14-12-14-14----14-16-------13--------|
D|-------------14-------------------14----------14----14-----|
A|-------------------------------------------------------14--|

F# D
e|-------------------------------------------|
B|-------------------------------------------|
G|-14-13-13-13-14-13-13-13-14-13-13-13-(X2)--|
D|-------------------------------------------|
A|-------------------------------------------|

A E
e|-------------------------------------------|
B|-------------------------------------------|
G|-14-13-13-13-14-16-14-13-----------13------|
D|-------------------------14-12>14----------|
A|-------------------------------------------|


F# D
Voy a ser un rico triste
A
O el psiquiatra de la Virgen
E
Cuando tuvo que contarle lo del nino a San Jose.


C# F# D A
Hoy voy a matar esta vida gris
C# F# E
quiero enloquecer!!

C# F# D A
Voy a pirarme lejos, y nunca volvere,
C# F# E
Que manaña es tarde y todo sera igual!!


F# D
LA LA lara LA lara LA LA lara LA lara
A E
LA LA lara lala LA LA LA LA lara LA LA




Eso es todo... ezpero lez sea mas util
Sugerenzias o korrekzionez al correo [email protected]


ACORDES PARA GUITARRA

PIANO UKELELE
F#
D
E
A
A
C#


COMENTARIOS

Aún no hay comentarios,

¡escribe el primero!

Escribe una pregunta, duda o comentario sobre esta canción, te responderemos a la brevedad.

Las más tocadas de La Polla Records

Toca una Canción al Azar de La Polla Records
F#
D
E
A
A
C#