Compartir


Imprimir FAQ
+A
-A

Texto

Desplazamiento

Transportador

Color de Fondo

Archivos

-A
+A
Intro

G|--------------|----------------|
D|-4-4----4-4---|-54------54-----|
A|--5--7---5--3-|---55-7----55-3-|
E|--------------|----------------|
 |  DOS  Veces  |   DOS  Veces   |

Verso
G|--------------|x12
D|-4------4-----|
A|--55-7---55-3-|
E|--------------|

Coro *No es exacto, pero suena bien*
G|-----------------------------|x4
D|-----3-4-5---------7-6-5-----|
A|-3-5-------3-4-5-7-------7-6-|
E|-----------------------------|

Puente
G|--------------------------------------------|x2
D|-5-4--4-----5-4--4-------5-4--4-------------|
A|-----5-5/7------5-5-4h3------5-5/7-6-5-44-3-|
E|--------------------------------------------|

Verso
G|--------------|x4
D|-4------4-----|
A|--55-7---55-3-|
E|--------------|

Coro
G|-----------------------------|x4
D|-----3-4-5---------7-6-5-----|
A|-3-5-------3-4-5-7-------7-6-|
E|-----------------------------|

Violines
G|------------------------|x4
D|--4-----------4---------|
A|-5-5-5-6--7--5-5-5-4--3-|
E|------------------------|

Verso
G|--------------|x4
D|-4------4-----|
A|--55-7---55-3-|
E|--------------|

Coro
G|-----------------------------|x8
D|-----3-4-5---------7-6-5-----|
A|-3-5-------3-4-5-7-------7-6-|
E|-----------------------------|

Escuchá la canción para saber el ritmo


Video Clip de Nada Es Igual


ACORDES PARA GUITARRA

PIANO UKELELE


TOP 20: Las más tocadas de La Portuaria


Acordes

Cerrar

18.30

x

50