Compartir


Imprimir FAQ
+A
-A

Texto

Desplazamiento

Transportador

Color de Fondo

Archivos

-A
+A
Intro

G|-----------|x4
D|-----------|
A|-3-3-3--2--|
E|------33-3-|

Verso
G|-----------|x8
D|-----------|
A|-3-3-3--2--|
E|------33-3-|

Coro *2veces*
G|--------------1/5-5-3-2-|-----------------------|
D|----2--2-3-5-3----------|----2--2-3-5-3---------|
A|-1/3--3-----------------|-1/3--3--------3-------|
E|------------------------|-----------------5-4-3-|

Puente
G|-----------|x4
D|-----------|
A|-3-3-3--2--|
E|------33-3-|

Verso
G|-----------|x12
D|-----------|
A|-3-3-3--2--|
E|------33-3-|

Coro *4veces*
G|--------------1/5-5-3-2-|-----------------------|
D|----2--2-3-5-3----------|----2--2-3-5-3---------|
A|-1/3--3-----------------|-1/3--3--------3-------|
E|------------------------|-----------------5-4-3-|

Solo de Saxo 1
G|-----------|x8
D|-----------|
A|-3-3-3--2--|
E|------33-3-|

Solo de Saxo 2
G|-------------------------------------------------------|x4
D|-------2--22-3-5--22-5-3-2---------2--22-3-5--3-2------|
A|-3--3-5----------------------3--3-5--------------5-4-3-|
E|-------------------------------------------------------|

Coro *4veces*
G|--------------1/5-5-3-2-|-----------------------|
D|----2--2-3-5-3----------|----2--2-3-5-3---------|
A|-1/3--3-----------------|-1/3--3--------3-------|
E|------------------------|-----------------5-4-3-|

Escuchá la canción para saber el ritmo


Video Clip de Selva


ACORDES PARA GUITARRA

PIANO UKELELE


TOP 20: Las más tocadas de La Portuaria


Acordes

Cerrar

16.44

x

61