Hoy no le temo a la muerte (Acordes)

La Portuaria

Full Álbum: Río (2005)
Subida por Elvisvalle1

Compartir


Imprimir FAQ
+A
-A

Texto

Desplazamiento

Transportador

Color de Fondo

Archivos

-A
+A
BUENO DURANTE LA MAYORIA DEL TEMA SE TOCA ESTA PROGRESION DE ACORDES:

E  D  A  D  E |

ESTO SIGNIFICA QUE CUANDO PASA DEL ACORDE “E” AL “A” Y VICEVERSA
TOCA EL ACORDE “D” EN EL MEDIO : ESCUCHEN BIEN LA CANCION

INTRO
e-|---------------------|
B-|-/9-9-9-9-9-9-9-7-5--|
G-|-/9-9-9-9-9-9-9-7-6--|
D-|---------------------|
A-|---------------------|
E-|---------------------|

E  D  A  D  E    X4


E               D    A    D  E             D       A   D
Hoy no le temo a la muerte, no se que fue que me lo quito
E               D    A            D   E      D    A
No se si fueron tus besos, o tal ves fue una canción

Everything I own, I paid for that, I got the way all my possessions
And don’t want catch me sleeping when they tell my the train is coming

Yo ya pague mis deudas, mas no quiero tener
Y Quiero estar despierto cuando me digan que viene el tren

Hoy no le temo a la muerte, no se que fue que me lo quito
No se si fueron tus besos, o tal ves fue una canción

PUENTE
e-|-----------|---------|-----------|-----------|
B-|-----------|---------|-----------|-----------|
G-|-----------|---------|-----------|-----------|
D-|-----------|---4-----|-----------|----0---0--|
A-|---------5-|-7---7-5-|---------5-|-0h2-0h2-0-|
E-|-0---4-7---|---------|-0---4-7---|-----------|

e-|-----------|---------|-----------|
B-|-----------|---------|-----------|
G-|-----------|---------|-----------|
D-|-----------|---4-----|-----------|
A-|---------5-|-7---7-5-|---------5-|
E-|-0---4-7---|---------|-0---4-7---|

I’m not afraid, to cross the river
I’m not afraid, to pass on over
I jump over, jump over the fire
To tell not afraid of dieing

            E                 D                    E               D
Ay mamasita hoy yo cruce sin miedo el puente que pasa por sobre el rio
Ay mamita hoy yo salte la soga Y me tire solo del tobogán

                          E                D   A
I’m not afraid of dieing, Hoy no le temo a la muerte
             D       E                     D       A
Today is soundenly happend, No se que fue que me lo quito
             D       E                D         A
It could be your kisses, no se si fueron tus besos
       D   E     D    A
O tal vez fue una canción.

FINAL IGUAL QUE EL PUENTE, LA CANCION TERMINA HACIENDO “E”

ESPERO LES GUSTE!
LUIS_DAMMIT


Video Clip de Hoy no le temo a la muerte


ACORDES PARA GUITARRA

PIANO UKELELE
E
D
A


TOP 20: Las más tocadas de La Portuaria


Acordes

Cerrar
E
D
A

17.46

x

123