Compartir


Cambiar Cifrado
Americano Latino

Cambiar Tonalidad
-1 +1
Imprimir FAQ
+A
-A

Texto

Desplazamiento

Transportador

Color de Fondo

Archivos

TONALIDAD, TAMAÑO, CIFRADO, SCROL.

Nos renovamos: Ahora puedes cambiar TODO haciendo clic en ICONO de la Guitarra () que aparece en la parte inferior de esta página.


LETRA CON ACORDES

Intro:
Los vientos hacen esto:
  DOm     REm     FAm       SOL
e-1/3-----3/5-----5/8------8-10-------
B-----4-------6-------9----------9-8--
G-------5-------7-------10------------
D------------------------------------- X 4
A-------------------------------------
E-------------------------------------

*
e----------8-----------10------------8--------------
B----8-9-8---12-9-8-9-8---12-9-8-9-8---12-9-8-9-6-4-
G-10------------------------------------------------
D---------------------------------------------------
A---------------------------------------------------
E---------------------------------------------------

*La base de esta ultima parte es esta:
  DOm     SOL#  SOL
e-3-3-3-3--4-4--3-3-
B-4-4-4-4--4-4--3-3-
G-5-5-5-5--5-5--4-4- X 4
D-5-5-5-5--6-6--5-5-
A-3-3-3-3--6-6--5-5-
E----------4-4--3-3-
             -----------------------------------

DOm
 Y si te digo que la estupidez me estresa,
          SOL#             SOL
 bang bang dos tiro´ en la cabeza,
DOm
 y si te digo que la T.V. estupidiza
                          SOL#                   SOL
 y que el sistema te involucra para votar a los garcas.
DOm
 Yo quiero que las cosas se den vuelta
              SOL#                    SOL
 que seas inteligente que pienses con la cabeza
DOm
 ¿No ves que todo el mundo se hace mierda
                  SOL#                   SOL
 con tanto materialismo, contaminación y guerras?

  FA5       MI5 FA5       MI5 FA5       MI5 FA5
e-----------------------------------------------------------
B-----------------------------------------------------------
G-----------------------------------------------------------
D-3-3-3-3-3--2--3-3-3-3-3--2--3-3-3-3-3--2--3-3-3-3-3-3-3-3-
A-3-3-3-3-3--2--3-3-3-3-3--2--3-3-3-3-3--2--3-3-3-3-3-3-3-3-
E-1-1-1-1-1--0--1-1-1-1-1--0--1-1-1-1-1--0--1-1-1-1-1-1-1-1-

FA5 MI5  FA5   MI5  FA5
    Vos     sabes

   MI5  FA5
 el grado  de materialismo que tenes.

DOm SOL#       SOL    DOm    SOL#  SOL   DOm
    De    materialismo,    contaminación
    SOL#    SOL       DOm  SOL#               X 2
    por  tu  estupidez
    SOL
    guerra!

FA5 MI5  FA5 MI5  FA5 MI5  FA5

Después viene un arreglo de los vientos y la base es Dom SOL# SOL.


Video Clip de Materialismo


ACORDES PARA GUITARRA

PIANO UKELELE
Cm
Dm
Fm
G
G#
F5
E5


TOP 20: Las más tocadas de Las Manos de Filippi


Acordes

Cerrar
Cm
Dm
Fm
G
G#
F5
E5

05.52

x

107