Compartir


Cambiar Cifrado
Americano Latino

Cambiar Tonalidad
-1 +1
Imprimir FAQ
+A
-A

Texto

Desplazamiento

Transportador

Color de Fondo

Archivos

TONALIDAD, TAMAÑO, CIFRADO, SCROL.

Nos renovamos: Ahora puedes cambiar TODO haciendo clic en ICONO de la Guitarra () que aparece en la parte inferior de esta página.


LETRA CON ACORDES

INTRO


4------------------------|------------0h1p0h1p0h1p0-|    esto tambien es la base de bajo
5------3-3-3--1--1-------|------3-3-3---------------|
6-3--3-------------1-1-1-|-3--3---------------------| (x4) 

riff 
1-3-2------------|-3-2----------------|
2-----4-3--------|-----4-3--3h4p3h4p3-|
3---------2--3-0-|--------------------|

1-3-2------------|-3-2----------2h3-5-|
2-----4-3--------|-----4-3--3h4-------|
3---------2--3-0-|--------------------|

VERSO

sobre el riff 
otra guitarra toca G 

el corte pesadito es asi:

3-5-5-5-5-5-5-3-2-2-2-2-2-2-3-|                             3-8^-6-----------| 
4-5-5-5-5-5-5-3-2-2-2-2-2-2-3-|  el punteadito es asi creo: 4------7-5-3-5^-3|
5-3-3-3-3-3-3-1-0-0-0-0-0-0-1-|                             


VERSO 2

en el segundo verso solo se toca G 
despues viene la primera parte del intro y despues un punteo ke es algo asi:

1-----------3h6^-3----|-----------3h6^-3---|-----------3h6^-3-----6-5-3----------|
2-------3h6-------6-3-|-------3h6--------6-|-------3h6--------6-3-------6-5-3----|
3---3h5---------------|---3h5--------------|---3h5----------------------------5^-|
4-5-------------------|-5------------------|-5-----------------------------------|

1-----------3h6^-3----|------------------|-----------3h6^-3-----6-5-3------|
2-------3h6-------6-3-|------------------|-------3h6--------6-3-------6-5^-|
3---3h5---------------|---3h5-6-5-3-5^---|---3h5---------------------------|
4-5-------------------|-5--------------5-|-5-------------------------------|

despues lo repite con unas variaciones 

eso es todo

cualkiero duda: [email protected]


Video Clip de Presos de tu sociedad


ACORDES PARA GUITARRA

PIANO UKELELE


TOP 20: Las más tocadas de Las Manos de Filippi


Acordes

Cerrar

08.28

x

89