Compartir


Cambiar Cifrado
Americano Latino

Cambiar Tonalidad
-1 +1
Imprimir FAQ
+A
-A

Texto

Desplazamiento

Transportador

Color de Fondo

Archivos

TONALIDAD, TAMAÑO, CIFRADO, SCROL.

Nos renovamos: Ahora puedes cambiar TODO haciendo clic en ICONO de la Guitarra () que aparece en la parte inferior de esta página.


LETRA CON ACORDES

intro:  

  A5                C5        A5               Bb5 
e---------------------------|------------------6------|
B---------------------------|------------------6------|
G---------------------------|--------------------------|
D-2--2---2-2-2-2--2-5-5-----|-2--2---2-2-2-2-----------| X3
A-0--0---0-0-0-0--0-3-3-----|-0--0---0-0-0-0-----------|
E---------------------------|--------------------------|

  A5         arrastre de pua
e---------------------------|
B---------------------------|
G---------------------------|
D-2--2---2-2-//////////-----|
A-0--0---0-0-//////////-----|
E---------------------------|

estrofa:  
  A5                C5        A5                Bb5         
e---------------------------|---------------------------|     
B---------------------------|---------------------------|    
G---------------------------|---------------------------|
D-2--2---2-2-2-2--2-5-5-----|-2--2---2-2-2-2--2-3-3-----| X2
A-0--0---0-0-0-0--0-3-3-----|-0--0---0-0-0-0--0-1-1-----|
E---------------------------|---------------------------|
  A5                C5         A5               Bb5 
e---------------------------|------------------6-6----|     
B---------------------------|------------------6-6----|
G---------------------------|--------------------------|    
D-2--2---2-2-2-2--2-5-5-----|-2--2---2-2-2-2-----------| 
A-0--0---0-0-0-0--0-3-3-----|-0--0---0-0-0-0-----------|    
E---------------------------|--------------------------|
    
se expande la miseria por todo el planeta
y hay mucho careta que piensan que la meta
capitalista que todos podamos tener algun dia
la camioneta que cabeza mas concheta
tienen plena confianza en esta mierda
y se piensan que esa paz, 
esa paz que te da el poder de explotar
esa paz que te da el poder de entregar
se expande en el planeta
todos sabemos que la meta es la plata
la merca las armas y la cometa
todos sabemos que te estan saqueando
al primer mundo estan emparchando
lo que realmente se expande por el mundo
es la muerte de este sistema inmundo
se expande en el planeta 
la resistencia es el sistema y es un enema
salta la bronca y es un bochorno
quien no sabe que son todos chorros
y te enteraste hoy, quedar de capitan
te queda un puesto de laburo
seguro que esta aca por comer un dia mas
me puedo concentrar y no pensar
descansar el balero es el enema para el obrero

Estribillo: 

Am                  F
 organizacion, internacional
G                         C
 revolucionaria contra el capital
        F                      C
 contra los burocratas, contra la patronal
            F                   E
 contra el fondo monetario internacional

Am  F  G  C  F  C  F  E


estrofa 2 (como la primera).

estribillo.

puente:

Azucar!!
  Am                                    F
todo aquel que piense que duhalde no es igual
                          Am
tiene que entender que no es asi
                         E                   Am
que ese es otro hijo de puta, que hay matarlo
                  F                       Dm
hay, no hay que pagar, ni a la banca internacional
                    E
ni los impuestos nacionales

Am  F  G  C  F  C  F  E

intro y fin


Video Clip de Organización


ACORDES PARA GUITARRA

PIANO UKELELE
A5
C5
Bb5
Am
F
G
C
E
Dm


TOP 20: Las más tocadas de Las Manos de Filippi


Acordes

Cerrar
A5
C5
Bb5
Am
F
G
C
E
Dm

10.50

x

99