Cajita (Acordes)

Leo Quinteros

Subida por Rafaelelias

Compartir


Imprimir FAQ
+A
-A

Texto

Desplazamiento

Transportador

Color de Fondo

Archivos

-A
+A
Esta cancion se toca siempre igual
hay pequeñas variaciones...

Comencemos:
Em
---------------------------------
---------------------------------
-------0---------------0--------- (Esta es la base de
-----4---4-----------4---4-------  toda la cancion...)
---7-------7---7---7-------7---7-
-0-----------0---5-----------5---

Variacion 1 (guitarras):
----------
---3-5--5-
-4--------
----------
----------
----------

Variacion 2 (bajos):
-------------------
-------------------
-------------------
-------------------
-7-7-7--7-7-7-5--7-
-------------------

Pedro hablaba de lo que sabia
Se quedaba quieto al despertar
Nunca comprendia, eso es mejoria
Vida sana que le prometian al salvar

Nunca usaba maquinas del tiempo
Respondia siempre al capitan
Ahora esta muy lejos, ya nadie lo mira
Escondido inventa meridianos en el mar
En el mar...

Su madrina sabe lo que hace
Se lo dijo un dia al despertar
Hay que dejar todo en una cajita
En el centro de una pieza oscura
Bajo el mar
Bajo el mar
Bajo el mar...


eso es todo, espero que disfruten esta bella cancion


Video Clip de Cajita


ACORDES PARA GUITARRA

PIANO UKELELE


TOP 20: Las más tocadas de Leo Quinteros


Acordes

Cerrar

15.57

x

54