Tráfico (Acordes)

Leo Quinteros

Subida por Debra

Compartir


Imprimir FAQ
+A
-A

Texto

Desplazamiento

Transportador

Color de Fondo

Archivos

-A
+A
MI              MI/RE#
No entiendo el tráfico
LA         FA#     MI           (VI-3-2-0-)
Hace tres días ya, que estoy aquí
MI        MI/RE#
Nada que hacer
LA         FA#     MI
Mas que escuchar la radio, otra vez
MI/RE#
Y eso no está bien
FA#m                           SI                           MI-LAm-MI
Ya nadie se da cuenta que esta fila es una vuelta sin final

Para frenar
Hay que venir rodando tiempo atrás
Ya no me ves
(no estoy aquí)
y tú, tal vez, dejaste de existir
y eso no está bien
Yo quiero estar en casa, y ya se hace la hora de volver

LAm      MI
Nunca me fuí
LA       FA#
Y no estoy aquí

-------------------------12/11-11--------------------------------
-------14----12-------------------14-14-12--------------------10-
-14-13----11-------11-13-------------------11-13-11--------/9----
----------------13-----------------------------------11p10-------
-----------------------------------------------------------------
-----------------------------------------------------------------

------------------------------------------------
-----------------9--------------9-10-12---------
----------8--8/9---9-6------------------9-8-11--
-11p10-4~--------------7------9-----------------
-------------------------7-9--------------------
------------------------------------------------

-------16------------------------||
-16h17----17---------------------||
-------------17s16-17--12----14^-||
--------------------------16-----||
---------------------------------||
---------------------------------||


Video Clip de Tráfico


ACORDES PARA GUITARRA

PIANO UKELELE
E
E/D#
A
F#
F#m
B
Am


TOP 20: Las más tocadas de Leo Quinteros


Acordes

Cerrar
E
E/D#
A
F#
F#m
B
Am

14.29

x

115