Pensilvania (Acordes)

Leo Quinteros

Subida por ander25

Compartir


Imprimir FAQ
+A
-A

Texto

Desplazamiento

Transportador

Color de Fondo

Archivos

-A
+A
INTRO:
----------14-------|--------14-------|---------14-------
----15------15--15-|---15-----15--15-|---15------15--15- |
-14----14-----14---|13----13----13---|12----12-----12--- |
--0----------------|-----------------|------------------ |
-------------------|-----------------|------------------ |
-------------------|-----------------|------------------
                                                          > X2
-------12-----------12----                               /
----15----15-----15----15-                               |
-14-----------13----------                               |
--------------------------                               |
--------------------------                               |
--------------------------                               /

No tengo clases, me voy mañana
Tampoco creo en los encargos,
Ni en melodias tan contundentes
Que se ven, mas que se sienten
Y pienso en algo, en Pensilvania,
Salgo a las ocho de la mañana
Cargue unos discos,comi parado
                     A#  A
Vendi un boleto del Gran Santiago

-------5----|------7----|--2-----2---|-------------
---7----7-7-|--7----7-7-|----3-5--3--|--6----------
-7---7---7--|----7---7--|4---------4-|---7-----6---
------------|6----------|------------|8----8-7---7-
------------|-----------|------------|-------------
------------|-----------|------------|-------------

Conoci un tipo, real, solito
que me ayudo a vestir mis barcos
Aunque el sabia y me advertia
que no hay mar en Pensilvania
No le hice caso, me dijo chao
y me fui a bordo de un nao

D G#m7 G A# A

D             G#m7
Estaba solo y sin paredes
G             A#      A
habia perdido algunas redes
D                 G#m7
El mar me hablaba y me decia:
G                  A#  A
Solos tu y yo, que te parece
D              G#m7
Un encuentro mortal entre el hombre y el mar
G              A#   A
para saldar cuentas pendientes
D              G#m7
Si te logro ahogar te quedas a cenar?
G              A#   A
un tiburon de invitado te tiene
D              G#m7
y si vences al mar, lo puedes cegar
G                 A#     A
tomar la tierra y cuanto debes

----------14-------|--------14-------|---------14-------
----15------15--15-|---15-----15--15-|---15------15--15-
-14----14-----14---|13----13----13---|12----12-----12---
--0----------------|-----------------|------------------
-------------------|-----------------|------------------
-------------------|-----------------|------------------

-------12-----------12----
----15----15-----15----15-
-14-----------13----------
--------------------------
--------------------------
--------------------------

Ice las velas, salve con vida
quiero llegar a Pensilvania
Alguien me espera, es un fantasma
con una identidad extraña
Sera otra cosa, sere yo mismo
habla en un idioma distinto
El mar se acuerda de mi escapada
por eso de navegar ahora nada
tomare vuelo, a ver si el cielo
quiere llevarme e Pensilvania

A Pensilvania...A Pensilvania


Video Clip de Pensilvania


ACORDES PARA GUITARRA

PIANO UKELELE
A#
A
D
G#m7
G


TOP 20: Las más tocadas de Leo Quinteros


Acordes

Cerrar
A#
A
D
G#m7
G

22.47

x

67