Carmen (Acordes)

Leo Quinteros

Subida por Cantalicio

Compartir


Imprimir FAQ
+A
-A

Texto

Desplazamiento

Transportador

Color de Fondo

Archivos

-A
+A
Intro: (se puede hacer asi)
E---------------
B-2-2-2-----1---
G-------0h2---2-
D---------------
A---------------
E---------------

(Despues va esto)
E--------------
B--------------
G--------------
D--------------
A-0--0--0--0---
E--------------
Carmen puede despertar,
pero la noche fue demasiado larga
Prefiere dormir, no desistir,
las horas le borran el alma

E--------0---------------------------0-------
B--------1---------------------------3-------
G--------2---------------------------4-------
D--------3---------------------------5-------
A--------3---------------------------5-------
E--------0---------------------------0-------
Y cada cuadro del hombre se queda atormentado
Por la vieja promesa que cobra las cuentas del año pasado

E---------------
B-2-2-2-----1---
G-------0h2---2-
D---------------
A---------------
E---------------

Carmen sabe que fumo, y que nunca la miro
Pero, tal para cual, es un día normal de silencio en familia

E--------0-----(0)-------------------0--(0)-------
B--------1--------(1)----------------3-----(3)----
G--------2-----------(2)-------------4--------(4)-
D--------3---------------------------5------------
A--------3---------------------------5------------
E--------0---------------------------0------------
Y cada cuadro del hombre se queda atormentado
Por la vieja promesa que cobra las cuentas del año pasado

Solo:
E-7-----------------------------7-----
B---8-6-8-6--6------------6s8-8---8~--
G--------------8-6-8-6----5s7-7------- X2
D----------------------8~-------------
A-------------------------------------
E-------------------------------------

E---------------------------
B-------0-1-3~-------0-1----
G---0-2----------0-2-----2~-
D-2------------2------------
A---------------------------
E---------------------------

E-------------------------------------------------------
B-------0-1-3~-5p3-3~-------0-1/14-14-14-14-------13----
G---0-2-----------------0-2-----------------12h14----14-
D-2-------------------2---------------------------------
A-------------------------------------------------------
E-------------------------------------------------------
Tal para cual
Tal para cual
Tal para cual


Video Clip de Carmen


ACORDES PARA GUITARRA

PIANO UKELELE


TOP 20: Las más tocadas de Leo Quinteros


Acordes

Cerrar

10.10

x

60