Mal Agüero (Acordes)

Leo Quinteros

Subida por carlosaxelcanedolopez

Compartir


Imprimir FAQ
+A
-A

Texto

Desplazamiento

Transportador

Color de Fondo

Archivos

-A
+A
INTRO: G A D
D
Camino al desierto donde llegan todos
yo te conoci unos pocos dias
el habia cruzado por la selva fria
lo que en la ciudad te parece poco
F#7
abre sus recuerdos, y fue mal agüero
Em7          G           A
y por ver un pajaro lo supe al tiro
D D/G# D/G
eras tu
            D    A
llego esta tarde
            D
triste a buscarte

Sabia de nosotros, tener cuadro claro
fumando un cigarro lo decia todo
destruyo el silencio para recordar
que el ultimo en salir deja con llave
por no conocer a su enemigo
el pobre tipo se enfrento cotigo
al final
para encontrarse
yendo a buscarte

Desapareci todo en su cabeza
y me asegure que nadie viera nada
luego me tome el agua salada
y tambien saque propina de la mesa
junto al secreto tus palabras
me dejo el fin de su mirada
para MI
para encontrarte
triste a buscarte

---------------------------------------------
---------------------------------------------
-----------4--------7-6-4--------------------
-----4-5-7---7-5-4--------7-5-4--------------
-5-7----------------------------7-5-5--4-5-7-
---------------------------------------------

-----------------------------------------------
-----------------------------------------------
-----------4--------7-6-4----------------------
-----4-5-7---7-5-4--------7-5-4-------4---4----
-5-7----------------------------7-5-7---7---7--
-----------------------------------------------

D/G#  x56775
D/G   x55775


Video Clip de Mal Agüero


ACORDES PARA GUITARRA

PIANO UKELELE
G
A
D
F#7
Em7
D/G
E


TOP 20: Las más tocadas de Leo Quinteros


Acordes

Cerrar
G
A
D
F#7
Em7
D/G
E

00.30

x

58