Electricidad (Acordes)

Los Abandoned

Subida por gsuarez33

Compartir


Cambiar Cifrado
Americano Latino

Cambiar Tonalidad
-1 +1
Imprimir FAQ
+A
-A

Texto

Desplazamiento

Transportador

Color de Fondo

Archivos

TONALIDAD, TAMAÑO, CIFRADO, SCROL.

Nos renovamos: Ahora puedes cambiar TODO haciendo clic en ICONO de la Guitarra () que aparece en la parte inferior de esta página.


LETRA CON ACORDES

Esta canción esta muy chida y por eso aquí esta para todos ustedes:
               !!!!!!!!Disfrútenla!!!!!!!!!!!


Intro: (va con esta secuencia de acordes: G, D, E, A)


VERSO:1


e----------------------------
B----------------------------
G----------------------------
D----------------------------
A--------------5--------7----
E-5--------0-----------------
     Esto no      pareció

e-----------------------------------------------------
B-----------------------------------------------------
G-----------------------------------------------------
D-----------------------------------------------------
A-------------------------5---------7-----------------
E-5-----------0---------------------------------------
    Como el tipo de lugar en q’ tu quieras estar

A      E        D
   No sé que hiciste
A      E         D
   No sé que quisiste


CORO:

G          D        E          A      G
   Hasta que se cortó la electricidad
          D          E  A
   Me amabas hasta que...


VERSO:2

e--------------------------------
B--------------------------------
G--------------------------------
D--------------------------------
A-------------------5----------7-
E-5------------0-----------------
    Me han dicho      q’ el amor


A        E             D
  Simplemente es un pujón
            E        A
  de un magnético duro
        E             D
  Se esfuerza en la gravedad
A       E         D
  Y termina en antigüedad

CORO:

G         D        E          A     G
  Hasta que se cortó la electricidad
         D         E  A
  Me amaba hasta que...       [x2]


e-----------------                 -------------------
B-----------------                 -------------------
G-----------------  y en la cuarta -------------------
D-12---11----9----     vez así:    --12---11---7-7-7--
A-12---11----9----                 --12---11---7-7-7--
E-10----9----7----                 --10----9---5-5-5--
     O no o noo                       o    nooo


VERSO:3

e------------------------------------
B------------------------------------
G------------------------------------
D------------------------------------
A------------5--------7--------------
E-5-------0--------------5-----0-----      D
    Antes d’ sin querer  terminaste sin razón el poder
          G
    Se acabo

CORO:

  G         D        E            A    G
    Hasta que se cortó la electricidad
           D          E  A
     me amaba hasta que...   [x3]

  G        D
    Hsta que.


Video Clip de Electricidad


ACORDES PARA GUITARRA

PIANO UKELELE
A
E
D
G


TOP 20: Las más tocadas de Los Abandoned


Acordes

Cerrar
A
E
D
G

09.16

x

86