Panic-oh! (Acordes)

Los Abandoned

Subida por laudur2001

Compartir


Cambiar Cifrado
Americano Latino

Cambiar Tonalidad
-1 +1
Imprimir FAQ
+A
-A

Texto

Desplazamiento

Transportador

Color de Fondo

Archivos

TONALIDAD, TAMAÑO, CIFRADO, SCROL.

Nos renovamos: Ahora puedes cambiar TODO haciendo clic en ICONO de la Guitarra () que aparece en la parte inferior de esta página.


LETRA CON ACORDES

Q’ tal cuates de acordes web esta canción es de mis favoritas,asi
que decidí sacarla y  aquí esta, y por favor apoyen al rock en
español o latino.

Simbología:
P.M.= palm mute
   /= slide
   h= hammer
   v= vibrato

Intro:

e-------------------------------------------------------
B-------------------------------------------------------
G-------------------------------------------------------
D---11---10-10---11---10-10---11-10----7--7-7-7-7-7-7-7-
A---11---10-10---11---10-10---11-10----7--7-7-7-7-7-7-7-
E----9----8--8----9----8--8----9--8----5--5-5-5—5-5-5-5-  (X2)
                                         ………………P.M.……………

Verso: 1

e-----------------------------------------------
B-----------------------------------------------
G-----------------------------------------------
D---10/11---10/11---10-11-11---7--7-7-7-7-7-7-7-
A---10/11---10/11---10-11-11---7--7-7-7-7-7-7-7-
E----8/-9----8/-9----8--9--8---5--5-5-5-5-5-5-5-
                                  ……………P.M.……………
Panic-Oh
Tú sabes que me das Panic-Oh
Palpita el Corazon muy rápido
Ya no respiro me das Panic-Oh
Heart attack
You know you´re giving me a heart attack
You push me one way then you pull me back
Beats out of sequence sudden heart attack

e------------------------------------
B------------------------------------
G------------------------------------ !!!!!Disorder!!!!
D----5--5-5-5-5---5--5-5-5-5---------
A----5--5-5-5-5---5--5-5-5-5---------
E----3--3-3-3-3---3--3-3-3-3---------


Intro: (x2)


Verso:2  (se toca igual que el verso 1)

Panic-Oh
Veo el mundo y me da Panic-Oh
La gente falsa y el super Mercado
Ya no respiro me da Panic-Oh
Heart attack, you know they´re giving me a heart attack
This world´s a train we´re running of the track
Beats out of sequence sudden heart attack


e------------------------------------------------------------------
B------------------------------------------------------------------
G------------------------------------------------------------------
D-5-5-5-5-7-7-7-7-7-7-7-7-7--5-5-5-5-5-5-5-5-5-5-5-4-4-4-4-4-4-4-4-
A-5-5-5-5-7-7-7-7-7-7-7-7-7--5-5-5-5-5-5-5-5-5-5-5-4-4-4-4-4-4-4-4-
E-3-3-3-3-5-5-5-5-5-5-5-5-5--3-3-3-3-3-3-3-3-3-3-3-2-2-2-2-2-2-2-2-

 Disorder  Overload  ha a ha a  Heart attack ha ha ha  no control!

Interlude:
e----------------------------------------------------------
B----------------------------------------------------------
G----------------------------------------------------------
D------------7-7-7-------------------8-8-8-----------------
A------------7-7-7-------------------8-8-8-----------------
E—5-5-5-7h5-------(x4)---6-6-6-8h6--------(x2)---5-5-5-7h5-

I don´t know what it means,
pero siento that I don´t need to eat
I´ve lost several pounds of nerve
Quiero que me lo digas cantando
Suéltate las trenzas and back flip Like a Jedi
Pero como Gloria Trevi desapareciste sin trace
The phone doesn´t wanna marcar
Mientras tengo el corazon en la mano
Y el globo con seis motos
I don´t know what it means,
pero siento that I don´t need to eat
I´ve lost several pounds of nerve
Quiero que me lo digas cantando
Suéltate las trenzas and back flip Like a Jedi
Pero como Gloria Trevi desapareciste sin trace
The phone doesn´t wanna marcar
Mientras tengo el corazon en la mano
Y el globo con seis motos


Riff:

e-----------------------------------
B-----------------------------------
G------------8-7-6v—-6v-------------
D---5--6--8--------6v—6v------------
A----5--6--9------------------------
E--------------------------(x2)-----


Verso:3 (se toca igual que los 2 primeros).

Panic-Oh
Veo el mundo y me da Panic-Oh
Temor intenso, Panic-Oh No eres fanatico? Panic-Oh Estoy muy comoda,
Panic-Oh Tomando sopa me da, Panic-Oh Comprando ropa me da, Panic-Oh
Cuando manejo siento Panic-Oh
José Canseco me da Panic-Oh.


Bueno espero y les haya gustado cualquier duda mi correo es:
[email protected]


Video Clip de Panic-oh!


ACORDES PARA GUITARRA

PIANO UKELELE


TOP 20: Las más tocadas de Los Abandoned


Acordes

Cerrar

13.30

x

68