Carta Fatal
Los Jaibos
Acordes

Subida por Crisfloes


Más Versiones
Ver. 2 Ver. 3 Ver. 4 Ver. 5

Cambiar Cifrado
Americano Latino

Cambiar Tonalidad
-1 +1

Partir Pantalla Imprimir FAQ

+A
-A
Este requinto esde lo mas facil, espero y rapido le entiendan.
Dudas mandenme Un e-mail

El acom pañamineto del requinto va con el circulo de F+
Las notas de la letra son para guitarra ,

Se toca con requinto .
E--------0-3-0-------------3-2-1-0----------
B--------------1-------1-----------3-2-1-0--
G--0---0---------2-1-2---2------------------
D----4--------------------------------------
A-------------------------------------------
E-------------------------------------------

E--------0-3-0-------------3-2-1-0----------
B--------------1-------1-----------3-2-1-0--
G--0---0---------2-1-2---2------------------
D----4--------------------------------------
A-------------------------------------------
E-------------------------------------------

E-------------------------------------------
B----------1-0-------1----------------------
G--2-0---------2-1-2---2--------------------
D------3-2---------------3-2-0--------------
A-------------------------------------------
E------------------------------3------------


Saludos atodos lo guitarristas.
Dudas o lagun potro requinto
Mi msn [email protected]


(Hablado)
“Amado mío
Quisiera seguir contigo
Pero no puedo, olvídame.

Perdona si la escribir
Esta carta soy un poco cruel
Tampoco pude evitarlo
Mi amor por ti ha muerto
Asi que adiós
y buena suerte”

F Dm Gm
Ay vida
C7 F Dm Gm
Dime que no es cierto
C7 F Dm
Que tu me has escrito
Gm C7 F Dm Gm C7
Esta carta fatal.

F+ Dm Gm
Ay vida
C7 F Dm Gm
Le he pedido al cielo
C7 F Dm
Que nunca me dejes
Gm C7 F
En mi soledad

C#
Comprende
F
Que sin ti me muero
C#
No puedo
F Dm Gm C7
Dejarte de amar


F Dm Gm
Ay vida
C7 F Dm Gm
Dime que no es cierto
C7 F Dm
Que tu me has escrito
Gm C7 F C#
Esta carta fatal.
F
Esta carta fatal.


ACORDES PARA GUITARRA

PIANO UKELELE
F
Dm
Gm
C7
C#


COMENTARIOS

Aún no hay comentarios,

¡escribe el primero!

Escribe una pregunta, duda o comentario sobre esta canción, te responderemos a la brevedad.

Las más tocadas de Los Jaibos

Toca una Canción al Azar de Los Jaibos
F
Dm
Gm
C7
C#