Loca Pasión
Los Jaibos
Acordes

Subida por daniel


Más Versiones
Ver. 2 Ver. 3 Ver. 4 Ver. 5 Ver. 6

Cambiar Cifrado
Americano Latino

Cambiar Tonalidad
-1 +1

Partir Pantalla Imprimir FAQ

+A
-A
Aquí esta el requinto de esta canción de los jaibos loca pasión,
esta algo complicado pero si se ensaya con ganas claro que se
facilita muy rápido. Espero y le entiendan. Alguna duda o
comentario arriba esta mi MSN. Si alguien no se sabe la letra
escríbanme.
C Bm
E--0-----------/-------------------------/---
B----4-3-2-0-3-/-2-1-0-3-2-1-0-3-2-1-0-2-/---
G--------------/-------------------------/---
D--------------/-------------------------/---
A--------------/-------------------------/---
E--------------/-------------------------/---

D dis Am D7 G
E-------------------------/-------------------------/---
B-------1-0---------------/-------------------------/---
G-2-1-2-----2-0-----------/-2-1-2-0-----------------/---
D---------------4-2-1-4-2-/---------2---------------/---
A-------------------------/-----------4-2-0---------/---
E-------------------------/-----------------3-0-1-2-/---

C
E---------/---------/-------------------------/---
B---------/-0---0-3-/-2-1-0-3-2-1-0-3-2-1-0-2-/---
G---------/---3-----/-------------------------/---
D---------/---------/-------------------------/---
A-0-4-0-2-/---------/-------------------------/---
E---------/---------/-------------------------/---

Bm D dis Am D7
E-------------------------/-----------------------/---
B-------1-0---------------/-------2-0-------------/---
G-2-1-2-----2-0-----------/-2-1-2-----2-0---------/---
D---------------4-2-1-4-2-/---------------4-2-0---/---
A-------------------------/---------------------4-/---
E-------------------------/-----------------------/---

G Em Am D7
E-----------------------------/---
B-------2-0---0-3-0-----------/---
G-----2-----3-------0---------/---
D-0-4-----------------2-1-0---/---
A---------------------------4-/---
E-----------------------------/---

Ensayen mucho y se la aprenderán.

////////////////// ¿Te Animas? Sube una canción a este sitio. //////////////////

ACORDES PARA GUITARRA

PIANO UKELELE
C
Bm
D
Am
D7
G
Em


COMENTARIOS

Aún no hay comentarios,

¡escribe el primero!

Escribe una pregunta, duda o comentario sobre esta canción, te responderemos a la brevedad.

Las más tocadas de Los Jaibos

Toca una Canción al Azar de Los Jaibos
C
Bm
D
Am
D7
G
Em