La Vida Mágica
Los Jaivas
Acordes

Subida por luks16


Más Versiones
Ver. 2 Ver. 3 Ver. 4 Ver. 5

Cambiar Cifrado
Americano Latino

Cambiar Tonalidad
-1 +1

Partir Pantalla Imprimir FAQ

+A
-A
intro: FA-DO-LAm-SOL

1/--12^13-13-13-13-12^13^12-------------------------------15-
2/--------------------------15-13~------12-13-------12-15----
3/--------------------------------14-14-------14-12----------


1/--12^13-13-13-13-12^13^12----------------------12-------------
2/--------------------------15-13~13-13^15^13^15----15-13-12-13-
3/--------------------------------------------------------------


1/--------------15-13-13-------13-12^13^12-------12-------------
2/--------12-15-------------13-------------15-13----15-13-12-13-
3/--14-12----------------14-------------------------------------


1/--12-------------------------15-13-13-------13-12^13^12-------
2/-----15-13-12-13-------12-15-------------13-------------15-13-
3/-----------------14-12----------------14----------------------


1/--12-------------------------------------------13-13-------13-
2/-----15-13-12-13----------13-12-------12----------------13----
3/-----------------14----14-------14-12----14-12-------14-------
4/--------------------14----------------------------------------


1/--12^13^12-------12----------------------------------------------
2/-----------15-13----15-13-12-13-------------13-12-10----12-10----
3/--------------------------------14-14----14----------12-------12-
4/--------------------------------------14-------------------------


1/-------------------------------------------------------------------15-
2/-------------------------------13-12-13----------13-12-------12-15----
3/--10-9-10----9-10-9-------9-12----------14----14-------14-12----------
4/----------10--------12-10------------------14-------------------------


1/--15-15-13-13-13-12-12^13-12--------------
2/-----------------------------15-13-13-12/- 2 VECES
3/------------------------------------------


FA DO LAm SOL FA DO
LA VIDA MAGICA AY SI VAMOS LLEVANDO, TOCAR, TOCAR Y TOCAR,
LAm SOL FA DO
VALPARAISO SOY, TOCAR, TOCAR Y TOCAR,
LAm SOL FA DO
VOY POR SANTIAGO, TOCAR, TOCAR Y TOCAR,
LAm SOL FA DO
MAGICA HISTORIA, TOCAR, TOCAR Y TOCAR,
LAm SOL FA DO
MONTEVIDEO AME, TOCAR, TOCAR Y TOCAR,
LAm SOL
AY BUENOS AIRES.

////////////////// ¿Te Animas? Sube una canción a este sitio. //////////////////

ACORDES PARA GUITARRA

PIANO UKELELE
F
C
Am
G


COMENTARIOS

Aún no hay comentarios,

¡escribe el primero!

Escribe una pregunta, duda o comentario sobre esta canción, te responderemos a la brevedad.

Las más tocadas de Los Jaivas

Toca una Canción al Azar de Los Jaivas
F
C
Am
G