No te vayas (Acordes)

Los Novel

Subida por Joelseverino

Compartir


Cambiar Cifrado
Americano Latino

Cambiar Tonalidad
-1 +1
Imprimir FAQ
+A
-A

Texto

Desplazamiento

Transportador

Color de Fondo

Archivos

TONALIDAD, TAMAÑO, CIFRADO, SCROL.

Nos renovamos: Ahora puedes cambiar TODO haciendo clic en ICONO de la Guitarra () que aparece en la parte inferior de esta página.


LETRA CON ACORDES

e|---|---|---|
B|---|---|---|
G|---|-*-|---|
D|---|-*-|---| A5
A|---|---|---|
E|---|---|---|

ESTA CANCION SE LA DEDICO A MI NOVIA PORKE LE GUSTA MUCHOO
TE AMO DIANITAA....

 INTRO
e|---------------------------------------------------------------|
B|-----5-------5---------5-------5-----5-5---5-------5---7---5---|
G|---4---4---4---4-----4---4---4---4-6-----6---6-4-4---4---4---4-|
D|-6-------6-------6/7-------7-----------------------------------|
A|---------------------------------------------------------------|
E|---------------------------------------------------------------|
Por favor, escuchame, no te quiero perder
no se que haria si no estas
estuve ciego, por que nunca pude ver       INTRO X3
a ese angel convertido en mujer

e|--------------------------------------------------|
B|-----5-------5---------5-------5-----5-5---5------|
G|---4---4---4---4-----4---4---4---4-6-----6---6-4--|INTRO2 X1
D|-6-------6-------6/7-------7----------------------|
A|--------------------------------------------------|
E|--------------------------------------------------|
(ES EL MISMO INTRO, SOLO KE TERMINA ANTES)
que bajo del cielo, y sin querer se  enamoro de mi...


    E                  C#m G#m C#m G#m
perdon, por no saberte amar
        A5
con una vida quiero remediar
        B
tu corazon yo lo quiero cuidar

       E
no te vayas
       C#m
no te vayas
        A5   B
no te vayas


E       A5    C#m   B
por favor, perdondame,
E                A5
no te quiero perder
             C#m         B
no se que haria si no estas

E   A5     C#m             B
perdon  si una lagrima lloraste por mi
E   A5     C#m             B
perdon si solo un dia  no te hice feliz


    E                  C#m G#m C#m G#m
perdon, por no saberte amar
        A5
con una vida quiero remediar
        B
tu corazon yo lo quiero cuidar

       E
no te vayas
       C#m
no te vayas
        A5   B . . . E
no te vayas


Video Clip de No te vayas


ACORDES PARA GUITARRA

PIANO UKELELE
E
C#m
G#m
A5
B


TOP 20: Las más tocadas de Los Novel


Toca una Canción al Azar de Los Novel

Acordes

Cerrar
E
C#m
G#m
A5
B

20.31

x

84