Seas Mía (Acordes)

Los Novel

Subida por Norelis

Compartir


Cambiar Cifrado
Americano Latino

Cambiar Tonalidad
-1 +1
Imprimir FAQ
+A
-A

Texto

Desplazamiento

Transportador

Color de Fondo

Archivos

TONALIDAD, TAMAÑO, CIFRADO, SCROL.

Nos renovamos: Ahora puedes cambiar TODO haciendo clic en ICONO de la Guitarra () que aparece en la parte inferior de esta página.


LETRA CON ACORDES

Ke onda esta es la primer cancion ke mando espero ke les guste y si
califico alto seguiré mandando mas tabs...


En la parte del arpejeo solo se pone esta figura
e|---|---|---|---
B|---|-3-|---|---
G|---|-2-|---|---
D|---|---|---|---
A|---|---|---|---
E|---|-3-|---|---

Este es el intro de la canción pero esto también se repite en
la mayor parte de la canción, que es lo que lleva la primer guitarra.

e|------0-----|-----0-----|-------|------|
B|---3-----3--|--3-----3--|----3--|----3-|
G|--2-2---2-2-|-2-2---2-2-|---2---|---2--|
D|-0----------|-----------|-------|--0---|
A|------------|0----------|-------|-0----|
E|------------|-----------|-3-----|------|

La segunda guitarra es la que lleva los acordes.
Van completos pero en el coro entran solo en quintillas y
con un poco de distor.

D         A
 No se ni como hacerle
G           A
 para convencerte,
D               A
 que tu eres la única
G                A
 que vuela en mi mente,
G       A            D
 no soy bueno para hablar,
G     A         D
 y todo me sale mal,



Aqui entran las quintillas:

      D        A       A#       G       B
e|---------|-------|-------|-------|-------|
B|---------|-------|-------|-------|-------|
G|----7----|-------|-------|-------|-------|
D|----7----|---7---|---8---|---5---|---9---|
A|----5----|---7---|---8---|---5---|---9---|
E|---------|---5---|---6---|---3---|---7---|


D        A        B          A
Y si hablara del posito en tu mejilla
D        A           B          A
Podría hacerle una canción a tu sonrisa
D          A      A# B            A
Y sin pasar por alto tu mirada de diva
D          A                 G
Sin mas palabras quiero que tu
A---->Se deja sonando
Seas mia...


----Aqui entra el mismo arpejeo del principio y los mismos acordes.-----

y si te digo lo que todos dicen,
tal vez pueda funcionar,
pero dejame decirte,
no soy bueno para hablar,
y todo me sale mal.



--Otra vez en quintillas

D        A        B          A
Y si hablara del posito en tu mejilla
D        A           B          A
Podría hacerle una canción a tu sonrisa
D          A      A# B            A
Y sin pasar por alto tu mirada de diva
D          A                 G
Sin mas palabras quiero que tu
A---->Se deja sonando
Seas mia...

D
Seas mía
A
seas mía
G
seas mía
A
Seas mía


Estos son los acordes de la canción cuando se tocan completos.
   D   A   G
e|---|---|-3-|
B|-3-|-2-|-3-|
G|-2-|-2-|---|
D|---|-2-|---|
A|---|---|-2-|
E|---|---|-3-|


Video Clip de Seas Mía


ACORDES PARA GUITARRA

PIANO UKELELE
D
A
G
A#
B


TOP 20: Las más tocadas de Los Novel


Toca una Canción al Azar de Los Novel

Acordes

Cerrar
D
A
G
A#
B

11.09

x

87