Unbekannt
los Piojos
Acordes

Subida por mabad
Álbum: Civilización ( 2007)



Otras Versiones

ENTRENA TU OÍDO MUSICAL CON ESTE JUEGO. ¿QUÉ ACORDE ES?. CLIC AQUÍ PARA JUGAR

Cambiar Cifrado
Americano Latino

Cambiar Tonalidad
-1 +1

Partir Pantalla Imprimir FAQ

Ver solo la LETRA

+A
-A
LETRA CON ACORDES
Intro:


e|0--0-0--0-0--0||
b|0--0-0--0-0--0||
g|1--1-1--1-1--0||
d|2--2-2--2-2--2||
a|2--2-2--2-2--2||
E|0--0-0--0-0--0||
v v v v v ^

(Como intro)
Pasa la gente a mi lado
en la Hauptbahnof
pasa la gente a mi lado
en Plaza del Reloj
nena tus ojos azules electricos son
las máquinas de nuestro futuro
aqui ya son Dios!

C
Soy el Unbekannt
E
el Unbekannt
C
der Unbekkante
(silencio)
el Unbekannt

Riff 1:
e|-------------|--||
b|-------------|--||
g|4---3--3-----|--||
d|4---3--3--2-2|x4||
a|2---1--1--2-2|--||
E|----------0-01--||



(Sobre Riff 1 y Mi)

Molinos de huesos blancos
veo girar
gente muy tranquila
que va a trabajar
no vas a escaparte
como en Villa Bosch
Herr Guarden Führer
no tengo reservation

C
Soy el Unbekannt
E
el Unbekannt
no vas a coimear
C
der Unbekkante

Riff 2:

e|--------------------------------------||
b|-8-7-5------------5--7~----8-7-5------||
g|--------6~------6----------------5/6~-||
d|--------------------------------------||
a|--------------------------------------||
E|--------------------------------------||

(Riff 2)
Heavy Faso
en Sankt Pauli
Peter y sus Chinas
van por ahi
el Unbekannt
soy el Unbekannt
el Unbekannt
nadie sabe de mi

(Riff 1)
Miren esa iglesia
que casi no esta
estadio de piedra
y fuego ritual
tus piernas son fuertes,
nena de Berlín
muros con agujeros de bala
del obús de Stalin

C
Soy el Unbekannt
E
el Unbekannt
Unbekannte
E
llamado un Unbekkant

(Riff 2)
Heavy Faso
en Sankt Pauli
Peter y sus Chinas
van por ahi
el Unbekannt
camina,
te extraña
sin fin.

(Sobre Fa5)
Another Bier
another one
miro el sol caer
sobre la ciudad
nadie para hablar

Referencias:

~: Vibrato
v: Rasgueo para Abajo
^: Rasgueo para arriba


ACORDES PARA GUITARRA

PIANO UKELELE
C
E


COMENTARIOS

Aún no hay comentarios,

¡escribe el primero!

Para hacer una pregunta o dejar un comentario sobre esta canción, debes estar LOGUEADO

Las canciones más tocadas de los Piojos

Toca una Canción al Azar de los Piojos
C
E

Nuestro servidor se demoró 0.02 segundos en generar esta página. Eso fue realmente muy rápido!